  0
SECTION
  2
HEADER
  9
$ACADVER
  1
AC1032
  9
$ACADMAINTVER
 90
        4
  9
$DWGCODEPAGE
  3
ANSI_1252
  9
$REQUIREDVERSIONS
160
                 0
  9
$INSBASE
 10
0.0
 20
0.0
 30
0.0
  9
$EXTMIN
 10
106.3771490535
 20
170.3227057221
 30
0.0
  9
$EXTMAX
 10
179.6322806154
 20
515.6180657662
 30
0.0
  9
$LIMMIN
 10
0.0
 20
0.0
  9
$LIMMAX
 10
420.0
 20
297.0
  9
$ORTHOMODE
 70
     0
  9
$REGENMODE
 70
     1
  9
$FILLMODE
 70
     1
  9
$QTEXTMODE
 70
     0
  9
$MIRRTEXT
 70
     1
  9
$LTSCALE
 40
1.0
  9
$ATTMODE
 70
     1
  9
$TEXTSIZE
 40
4.0
  9
$TRACEWID
 40
1.0
  9
$TEXTSTYLE
  7
Standard
  9
$CLAYER
  8
0
  9
$CELTYPE
  6
ByLayer
  9
$CECOLOR
 62
   256
  9
$CELTSCALE
 40
1.0
  9
$DISPSILH
 70
     0
  9
$DIMSCALE
 40
1.0
  9
$DIMASZ
 40
3.0
  9
$DIMEXO
 40
0.2
  9
$DIMDLI
 40
3.75
  9
$DIMRND
 40
0.0
  9
$DIMDLE
 40
0.0
  9
$DIMEXE
 40
0.5
  9
$DIMTP
 40
0.0
  9
$DIMTM
 40
0.0
  9
$DIMTXT
 40
2.5
  9
$DIMCEN
 40
2.5
  9
$DIMTSZ
 40
0.0
  9
$DIMTOL
 70
     0
  9
$DIMLIM
 70
     0
  9
$DIMTIH
 70
     1
  9
$DIMTOH
 70
     1
  9
$DIMSE1
 70
     0
  9
$DIMSE2
 70
     0
  9
$DIMTAD
 70
     1
  9
$DIMZIN
 70
     0
  9
$DIMBLK
  1

  9
$DIMASO
 70
     1
  9
$DIMSHO
 70
     1
  9
$DIMPOST
  1

  9
$DIMAPOST
  1

  9
$DIMALT
 70
     0
  9
$DIMALTD
 70
     3
  9
$DIMALTF
 40
0.0393700787
  9
$DIMLFAC
 40
1.0
  9
$DIMTOFL
 70
     1
  9
$DIMTVP
 40
0.0
  9
$DIMTIX
 70
     0
  9
$DIMSOXD
 70
     0
  9
$DIMSAH
 70
     0
  9
$DIMBLK1
  1

  9
$DIMBLK2
  1

  9
$DIMSTYLE
  2
ISO-25
  9
$DIMCLRD
 70
     0
  9
$DIMCLRE
 70
     0
  9
$DIMCLRT
 70
     0
  9
$DIMTFAC
 40
1.0
  9
$DIMGAP
 40
2.0
  9
$DIMJUST
 70
     0
  9
$DIMSD1
 70
     0
  9
$DIMSD2
 70
     0
  9
$DIMTOLJ
 70
     0
  9
$DIMTZIN
 70
     0
  9
$DIMALTZ
 70
     0
  9
$DIMALTTZ
 70
     0
  9
$DIMUPT
 70
     0
  9
$DIMDEC
 70
     2
  9
$DIMTDEC
 70
     2
  9
$DIMALTU
 70
     2
  9
$DIMALTTD
 70
     3
  9
$DIMTXSTY
  7
Standard
  9
$DIMAUNIT
 70
     0
  9
$DIMADEC
 70
     1
  9
$DIMALTRND
 40
0.0
  9
$DIMAZIN
 70
     0
  9
$DIMDSEP
 70
    44
  9
$DIMATFIT
 70
     3
  9
$DIMFRAC
 70
     0
  9
$DIMLDRBLK
  1

  9
$DIMLUNIT
 70
     2
  9
$DIMLWD
 70
    -2
  9
$DIMLWE
 70
    -2
  9
$DIMTMOVE
 70
     0
  9
$DIMFXL
 40
1.0
  9
$DIMFXLON
 70
     0
  9
$DIMJOGANG
 40
0.7853981634
  9
$DIMTFILL
 70
     0
  9
$DIMTFILLCLR
 70
     0
  9
$DIMARCSYM
 70
     0
  9
$DIMLTYPE
  6

  9
$DIMLTEX1
  6

  9
$DIMLTEX2
  6

  9
$DIMTXTDIRECTION
 70
     0
  9
$LUNITS
 70
     2
  9
$LUPREC
 70
     2
  9
$SKETCHINC
 40
1.0
  9
$FILLETRAD
 40
10.0
  9
$AUNITS
 70
     0
  9
$AUPREC
 70
     1
  9
$MENU
  1
.
  9
$ELEVATION
 40
0.0
  9
$PELEVATION
 40
0.0
  9
$THICKNESS
 40
0.0
  9
$LIMCHECK
 70
     0
  9
$CHAMFERA
 40
0.0
  9
$CHAMFERB
 40
0.0
  9
$CHAMFERC
 40
0.0
  9
$CHAMFERD
 40
0.0
  9
$SKPOLY
 70
     0
  9
$TDCREATE
 40
2459257.435389977
  9
$TDUCREATE
 40
2459257.39372331
  9
$TDUPDATE
 40
2459257.435755243
  9
$TDUUPDATE
 40
2459257.394088577
  9
$TDINDWG
 40
0.0000000116
  9
$TDUSRTIMER
 40
0.0000000116
  9
$USRTIMER
 70
     1
  9
$ANGBASE
 50
0.0
  9
$ANGDIR
 70
     0
  9
$PDMODE
 70
     0
  9
$PDSIZE
 40
-1.0
  9
$PLINEWID
 40
0.0
  9
$SPLFRAME
 70
     0
  9
$SPLINETYPE
 70
     6
  9
$SPLINESEGS
 70
     8
  9
$HANDSEED
  5
33D
  9
$SURFTAB1
 70
     6
  9
$SURFTAB2
 70
     6
  9
$SURFTYPE
 70
     6
  9
$SURFU
 70
     6
  9
$SURFV
 70
     6
  9
$UCSBASE
  2

  9
$UCSNAME
  2

  9
$UCSORG
 10
0.0
 20
0.0
 30
0.0
  9
$UCSXDIR
 10
1.0
 20
0.0
 30
0.0
  9
$UCSYDIR
 10
0.0
 20
1.0
 30
0.0
  9
$UCSORTHOREF
  2

  9
$UCSORTHOVIEW
 70
     0
  9
$UCSORGTOP
 10
0.0
 20
0.0
 30
0.0
  9
$UCSORGBOTTOM
 10
0.0
 20
0.0
 30
0.0
  9
$UCSORGLEFT
 10
0.0
 20
0.0
 30
0.0
  9
$UCSORGRIGHT
 10
0.0
 20
0.0
 30
0.0
  9
$UCSORGFRONT
 10
0.0
 20
0.0
 30
0.0
  9
$UCSORGBACK
 10
0.0
 20
0.0
 30
0.0
  9
$PUCSBASE
  2

  9
$PUCSNAME
  2

  9
$PUCSORG
 10
0.0
 20
0.0
 30
0.0
  9
$PUCSXDIR
 10
1.0
 20
0.0
 30
0.0
  9
$PUCSYDIR
 10
0.0
 20
1.0
 30
0.0
  9
$PUCSORTHOREF
  2

  9
$PUCSORTHOVIEW
 70
     0
  9
$PUCSORGTOP
 10
0.0
 20
0.0
 30
0.0
  9
$PUCSORGBOTTOM
 10
0.0
 20
0.0
 30
0.0
  9
$PUCSORGLEFT
 10
0.0
 20
0.0
 30
0.0
  9
$PUCSORGRIGHT
 10
0.0
 20
0.0
 30
0.0
  9
$PUCSORGFRONT
 10
0.0
 20
0.0
 30
0.0
  9
$PUCSORGBACK
 10
0.0
 20
0.0
 30
0.0
  9
$USERI1
 70
     0
  9
$USERI2
 70
     0
  9
$USERI3
 70
     0
  9
$USERI4
 70
     0
  9
$USERI5
 70
     0
  9
$USERR1
 40
0.0
  9
$USERR2
 40
0.0
  9
$USERR3
 40
0.0
  9
$USERR4
 40
0.0
  9
$USERR5
 40
0.0
  9
$WORLDVIEW
 70
     1
  9
$SHADEDGE
 70
     3
  9
$SHADEDIF
 70
    70
  9
$TILEMODE
 70
     1
  9
$MAXACTVP
 70
    64
  9
$PINSBASE
 10
0.0
 20
0.0
 30
0.0
  9
$PLIMCHECK
 70
     0
  9
$PEXTMIN
 10
106.3771490535
 20
170.3227057221
 30
0.0
  9
$PEXTMAX
 10
179.6322806154
 20
515.6180657662
 30
0.0
  9
$PLIMMIN
 10
70.962240331
 20
157.0421149512
  9
$PLIMMAX
 10
596.8736348597
 20
528.8986565371
  9
$UNITMODE
 70
     0
  9
$VISRETAIN
 70
     1
  9
$PLINEGEN
 70
     0
  9
$PSLTSCALE
 70
     1
  9
$TREEDEPTH
 70
  3020
  9
$CMLSTYLE
  2
Standard
  9
$CMLJUST
 70
     0
  9
$CMLSCALE
 40
20.0
  9
$PROXYGRAPHICS
 70
     1
  9
$MEASUREMENT
 70
     1
  9
$CELWEIGHT
370
    -1
  9
$ENDCAPS
280
     0
  9
$JOINSTYLE
280
     0
  9
$LWDISPLAY
290
     1
  9
$INSUNITS
 70
     4
  9
$HYPERLINKBASE
  1

  9
$STYLESHEET
  1

  9
$XEDIT
290
     1
  9
$CEPSNTYPE
380
     0
  9
$PSTYLEMODE
290
     1
  9
$FINGERPRINTGUID
  2
{38478681-1b7a-4e7f-9be4-a6ca77ae2112}
  9
$VERSIONGUID
  2
{FAEB1C32-E019-11D5-929B-00C0DF256EC4}
  9
$EXTNAMES
290
     1
  9
$PSVPSCALE
 40
0.0
  9
$OLESTARTUP
290
     0
  9
$SORTENTS
280
   127
  9
$INDEXCTL
280
     0
  9
$HIDETEXT
280
     1
  9
$XCLIPFRAME
280
     2
  9
$HALOGAP
280
     0
  9
$OBSCOLOR
 70
   257
  9
$OBSLTYPE
280
     0
  9
$INTERSECTIONDISPLAY
280
     0
  9
$INTERSECTIONCOLOR
 70
   257
  9
$DIMASSOC
280
     2
  9
$PROJECTNAME
  1

  9
$CAMERADISPLAY
290
     0
  9
$LENSLENGTH
 40
50.0
  9
$CAMERAHEIGHT
 40
0.0
  9
$STEPSPERSEC
 40
2.0
  9
$STEPSIZE
 40
6.0
  9
$3DDWFPREC
 40
2.0
  9
$PSOLWIDTH
 40
5.0
  9
$PSOLHEIGHT
 40
80.0
  9
$LOFTANG1
 40
1.5707963268
  9
$LOFTANG2
 40
1.5707963268
  9
$LOFTMAG1
 40
0.0
  9
$LOFTMAG2
 40
0.0
  9
$LOFTPARAM
 70
     7
  9
$LOFTNORMALS
280
     1
  9
$LATITUDE
 40
37.795
  9
$LONGITUDE
 40
-122.394
  9
$NORTHDIRECTION
 40
0.0
  9
$TIMEZONE
 70
 -8000
  9
$LIGHTGLYPHDISPLAY
280
     1
  9
$TILEMODELIGHTSYNCH
280
     1
  9
$CMATERIAL
347
44
  9
$SOLIDHIST
280
     0
  9
$SHOWHIST
280
     1
  9
$DWFFRAME
280
     2
  9
$DGNFRAME
280
     2
  9
$REALWORLDSCALE
290
     1
  9
$INTERFERECOLOR
 62
   256
  9
$CSHADOW
280
     0
  9
$SHADOWPLANELOCATION
 40
0.0
  0
ENDSEC
  0
SECTION
  2
CLASSES
  0
CLASS
  1
ACDBDICTIONARYWDFLT
  2
AcDbDictionaryWithDefault
  3
ObjectDBX Classes
 90
        0
 91
        3
280
     0
281
     0
  0
CLASS
  1
VISUALSTYLE
  2
AcDbVisualStyle
  3
ObjectDBX Classes
 90
     4095
 91
        3
280
     0
281
     0
  0
CLASS
  1
MATERIAL
  2
AcDbMaterial
  3
ObjectDBX Classes
 90
     1153
 91
        3
280
     0
281
     0
  0
CLASS
  1
SCALE
  2
AcDbScale
  3
ObjectDBX Classes
 90
     1153
 91
        3
280
     0
281
     0
  0
CLASS
  1
TABLESTYLE
  2
AcDbTableStyle
  3
ObjectDBX Classes
 90
     4095
 91
        3
280
     0
281
     0
  0
CLASS
  1
MLEADERSTYLE
  2
AcDbMLeaderStyle
  3
ACDB_MLEADERSTYLE_CLASS
 90
     4095
 91
        3
280
     0
281
     0
  0
CLASS
  1
SUN
  2
AcDbSun
  3
SCENEOE
 90
     1153
 91
        3
280
     0
281
     0
  0
CLASS
  1
DICTIONARYVAR
  2
AcDbDictionaryVar
  3
ObjectDBX Classes
 90
        0
 91
        3
280
     0
281
     0
  0
CLASS
  1
CELLSTYLEMAP
  2
AcDbCellStyleMap
  3
ObjectDBX Classes
 90
     1152
 91
        3
280
     0
281
     0
  0
ENDSEC
  0
SECTION
  2
TABLES
  0
TABLE
  2
VPORT
  5
8
330
0
100
AcDbSymbolTable
 70
     1
  0
VPORT
  5
29
330
8
100
AcDbSymbolTableRecord
100
AcDbViewportTableRecord
  2
*Active
 70
     0
 10
0.0
 20
0.0
 11
1.0
 21
1.0
 12
143.0047148344
 22
342.9703857442
 13
0.0
 23
0.0
 14
10.0
 24
10.0
 15
10.0
 25
10.0
 16
0.0
 26
0.0
 36
1.0
 17
0.0
 27
0.0
 37
0.0
 40
352.2012672449
 41
0.2121520879
 42
50.0
 43
0.0
 44
0.0
 50
0.0
 51
0.0
 71
     0
 72
   100
 73
     1
 74
     3
 75
     0
 76
     0
 77
     0
 78
     0
281
     0
 65
     1
110
0.0
120
0.0
130
0.0
111
1.0
121
0.0
131
0.0
112
0.0
122
1.0
132
0.0
 79
     0
146
0.0
348
2F
 60
     3
 61
     5
292
     1
282
     1
141
0.0
142
0.0
 63
   250
361
6D
  0
ENDTAB
  0
TABLE
  2
LTYPE
  5
5
330
0
100
AcDbSymbolTable
 70
     6
  0
LTYPE
  5
14
330
5
100
AcDbSymbolTableRecord
100
AcDbLinetypeTableRecord
  2
ByBlock
 70
     0
  3

 72
    65
 73
     0
 40
0.0
  0
LTYPE
  5
15
330
5
100
AcDbSymbolTableRecord
100
AcDbLinetypeTableRecord
  2
ByLayer
 70
     0
  3

 72
    65
 73
     0
 40
0.0
  0
LTYPE
  5
16
330
5
100
AcDbSymbolTableRecord
100
AcDbLinetypeTableRecord
  2
Continuous
 70
     0
  3
Solid line
 72
    65
 73
     0
 40
0.0
  0
LTYPE
  5
6E
330
5
100
AcDbSymbolTableRecord
100
AcDbLinetypeTableRecord
  2
HIDDEN
 70
     0
  3
Hidden __ __ __ __ __ __ __ __ __ __ __ __ __ __
 72
    65
 73
     2
 40
1.905
 49
1.27
 74
     0
 49
-0.635
 74
     0
  0
LTYPE
  5
6F
330
5
100
AcDbSymbolTableRecord
100
AcDbLinetypeTableRecord
  2
PHANTOM
 70
     0
  3
Phantom ______  __  __  ______  __  __  ______
 72
    65
 73
     6
 40
12.7
 49
6.35
 74
     0
 49
-1.27
 74
     0
 49
1.27
 74
     0
 49
-1.27
 74
     0
 49
1.27
 74
     0
 49
-1.27
 74
     0
  0
LTYPE
  5
70
330
5
100
AcDbSymbolTableRecord
100
AcDbLinetypeTableRecord
  2
CENTER
 70
     0
  3
Center ____ _ ____ _ ____ _ ____ _ ____ _ ____
 72
    65
 73
     4
 40
10.16
 49
6.35
 74
     0
 49
-1.27
 74
     0
 49
1.27
 74
     0
 49
-1.27
 74
     0
  0
LTYPE
  5
71
330
5
100
AcDbSymbolTableRecord
100
AcDbLinetypeTableRecord
  2
CENTERX2
 70
     0
  3
Center (2x) ________  __  ________  __  _____
 72
    65
 73
     4
 40
20.32
 49
12.7
 74
     0
 49
-2.54
 74
     0
 49
2.54
 74
     0
 49
-2.54
 74
     0
  0
LTYPE
  5
72
330
5
100
AcDbSymbolTableRecord
100
AcDbLinetypeTableRecord
  2
DOT2
 70
     0
  3
Dot (.5x) ........................................
 72
    65
 73
     2
 40
0.635
 49
0.0
 74
     0
 49
-0.635
 74
     0
  0
ENDTAB
  0
TABLE
  2
LAYER
  5
2
330
0
100
AcDbSymbolTable
 70
     1
  0
LAYER
  5
10
330
2
100
AcDbSymbolTableRecord
100
AcDbLayerTableRecord
  2
0
 70
     0
 62
     7
  6
Continuous
370
    -3
390
F
347
46
348
0
  0
ENDTAB
  0
TABLE
  2
STYLE
  5
3
330
0
100
AcDbSymbolTable
 70
     1
  0
STYLE
  5
11
330
3
100
AcDbSymbolTableRecord
100
AcDbTextStyleTableRecord
  2
Standard
 70
     0
 40
0.0
 41
1.0
 50
0.0
 71
     0
 42
4.0
  3
txt
  4

  0
ENDTAB
  0
TABLE
  2
VIEW
  5
6
330
0
100
AcDbSymbolTable
 70
     0
  0
ENDTAB
  0
TABLE
  2
UCS
  5
7
330
0
100
AcDbSymbolTable
 70
     0
  0
ENDTAB
  0
TABLE
  2
APPID
  5
9
330
0
100
AcDbSymbolTable
 70
     1
  0
APPID
  5
12
330
9
100
AcDbSymbolTableRecord
100
AcDbRegAppTableRecord
  2
ACAD
 70
     0
  0
ENDTAB
  0
TABLE
  2
DIMSTYLE
  5
A
330
0
100
AcDbSymbolTable
 70
     1
100
AcDbDimStyleTable
  0
DIMSTYLE
105
27
330
A
100
AcDbSymbolTableRecord
100
AcDbDimStyleTableRecord
  2
ISO-25
 70
     0
 41
2.5
 42
0.625
 43
3.75
 44
1.25
 73
     0
 74
     0
 77
     1
 78
     8
140
2.5
141
2.5
143
0.0393700787
147
0.625
171
     3
172
     1
178
     0
271
     2
272
     2
274
     3
278
    44
283
     0
284
     8
340
11
  0
ENDTAB
  0
TABLE
  2
BLOCK_RECORD
  5
1
330
0
100
AcDbSymbolTable
 70
     9
  0
BLOCK_RECORD
  5
1F
330
1
100
AcDbSymbolTableRecord
100
AcDbBlockTableRecord
  2
*Model_Space
340
22
 70
     0
280
     1
281
     0
  0
BLOCK_RECORD
  5
1B
330
1
100
AcDbSymbolTableRecord
100
AcDbBlockTableRecord
  2
*Paper_Space
340
1E
 70
     0
280
     1
281
     0
  0
BLOCK_RECORD
  5
23
330
1
100
AcDbSymbolTableRecord
100
AcDbBlockTableRecord
  2
*Paper_Space0
340
26
 70
     0
280
     1
281
     0
  0
BLOCK_RECORD
  5
12D
330
1
100
AcDbSymbolTableRecord
100
AcDbBlockTableRecord
  2
*Paper_Space1
340
12E
 70
     0
280
     1
281
     0
  0
BLOCK_RECORD
  5
18E
330
1
100
AcDbSymbolTableRecord
100
AcDbBlockTableRecord
  2
*Paper_Space2
340
18F
 70
     0
280
     1
281
     0
  0
BLOCK_RECORD
  5
192
330
1
100
AcDbSymbolTableRecord
100
AcDbBlockTableRecord
  2
*Paper_Space3
340
193
 70
     0
280
     1
281
     0
  0
BLOCK_RECORD
  5
196
330
1
100
AcDbSymbolTableRecord
100
AcDbBlockTableRecord
  2
*Paper_Space4
340
197
 70
     0
280
     1
281
     0
  0
BLOCK_RECORD
  5
19A
330
1
100
AcDbSymbolTableRecord
100
AcDbBlockTableRecord
  2
*Paper_Space5
340
19B
 70
     0
280
     1
281
     0
  0
BLOCK_RECORD
  5
1FB
330
1
100
AcDbSymbolTableRecord
100
AcDbBlockTableRecord
  2
*Paper_Space6
340
1FC
 70
     0
280
     1
281
     0
  0
BLOCK_RECORD
  5
25C
330
1
100
AcDbSymbolTableRecord
100
AcDbBlockTableRecord
  2
*Paper_Space7
340
25D
 70
     0
280
     1
281
     0
  0
BLOCK_RECORD
  5
2BD
330
1
100
AcDbSymbolTableRecord
100
AcDbBlockTableRecord
  2
*Paper_Space8
340
2BE
 70
     0
280
     1
281
     0
  0
ENDTAB
  0
ENDSEC
  0
SECTION
  2
BLOCKS
  0
BLOCK
  5
20
330
1F
100
AcDbEntity
  8
0
100
AcDbBlockBegin
  2
*Model_Space
 70
     0
 10
0.0
 20
0.0
 30
0.0
  3
*Model_Space
  1

  0
ENDBLK
  5
21
330
1F
100
AcDbEntity
  8
0
100
AcDbBlockEnd
  0
BLOCK
  5
1C
330
1B
100
AcDbEntity
 67
     1
  8
0
100
AcDbBlockBegin
  2
*Paper_Space
 70
     0
 10
0.0
 20
0.0
 30
0.0
  3
*Paper_Space
  1

  0
ENDBLK
  5
1D
330
1B
100
AcDbEntity
 67
     1
  8
0
100
AcDbBlockEnd
  0
BLOCK
  5
24
330
23
100
AcDbEntity
  8
0
100
AcDbBlockBegin
  2
*Paper_Space0
 70
     0
 10
0.0
 20
0.0
 30
0.0
  3
*Paper_Space0
  1

  0
VIEWPORT
  5
320
330
23
100
AcDbEntity
  8
0
100
AcDbViewport
 10
0.0
 20
0.0
 30
0.0
 40
205.6
 41
156.0
 68
     1
 69
     1
 12
143.0047148344
 22
342.9703857442
 13
0.0
 23
0.0
 14
10.0
 24
10.0
 15
10.0
 25
10.0
 16
0.0
 26
0.0
 36
1.0
 17
0.0
 27
0.0
 37
0.0
 42
50.0
 43
0.0
 44
0.0
 45
352.2012672449
 50
0.0
 51
0.0
 72
   100
 90
   557152
  1

281
     0
 71
     1
 74
     0
110
0.0
120
0.0
130
0.0
111
1.0
121
0.0
131
0.0
112
0.0
122
1.0
132
0.0
 79
     0
146
0.0
170
     0
 61
     5
348
2F
292
     1
282
     1
141
0.0
142
0.0
 63
   256
361
321
  0
ENDBLK
  5
25
330
23
100
AcDbEntity
  8
0
100
AcDbBlockEnd
  0
BLOCK
  5
12F
330
12D
100
AcDbEntity
  8
0
100
AcDbBlockBegin
  2
*Paper_Space1
 70
     0
 10
0.0
 20
0.0
 30
0.0
  3
*Paper_Space1
  1

  0
ARC
  5
131
330
12D
100
AcDbEntity
  8
0
  6
Continuous
 62
     7
100
AcDbCircle
 10
-251.2567013335
 20
456.618055239
 30
0.0
 40
100.0000000000001
100
AcDbArc
 50
350.0636335229
 51
9.9363723925
  0
ARC
  5
132
330
12D
100
AcDbEntity
  8
0
  6
Continuous
 62
     7
100
AcDbCircle
 10
-150.7567025251
 20
476.6180648786
 30
0.0
 40
2.000000410711763
100
AcDbArc
 50
90.000011766
 51
179.9999976248
  0
ARC
  5
133
330
12D
100
AcDbEntity
  8
0
  6
Continuous
 62
     7
100
AcDbCircle
 10
-139.7567023397
 20
476.6180652893
 30
0.0
 40
2.000000000000055
100
AcDbArc
 50
359.9999906092
 51
90.0
  0
ARC
  5
134
330
12D
100
AcDbEntity
  8
0
  6
Continuous
 62
     7
100
AcDbCircle
 10
-39.2567021605
 20
456.6180654085
 30
0.0
 40
100.0
100
AcDbArc
 50
170.0636335229
 51
189.9363664771
  0
ARC
  5
135
330
12D
100
AcDbEntity
  8
0
  6
Continuous
 62
     7
100
AcDbCircle
 10
-139.7567023397
 20
436.6180655278
 30
0.0
 40
2.000000000000044
100
AcDbArc
 50
270.0
 51
359.9999026688
  0
ARC
  5
136
330
12D
100
AcDbEntity
  8
0
  6
Continuous
 62
     7
100
AcDbCircle
 10
-150.7567013512
 20
436.6180653309
 30
0.0
 40
1.9999998031367
100
AcDbArc
 50
180.0003830269
 51
269.9999546042
  0
ARC
  5
137
330
12D
100
AcDbEntity
  8
0
  6
Continuous
 62
     7
100
AcDbCircle
 10
-141.2567021605
 20
377.1180648125
 30
0.0
 40
1.99999999999973
100
AcDbArc
 50
359.9998838872
 51
90.0
  0
ARC
  5
138
330
12D
100
AcDbEntity
  8
0
  6
Continuous
 62
     7
100
AcDbCircle
 10
-40.4067020555
 20
357.1180649317
 30
0.0
 40
100.0
100
AcDbArc
 50
171.3023163072
 51
188.6976836928
  0
ARC
  5
139
330
12D
100
AcDbEntity
  8
0
  6
Continuous
 62
     7
100
AcDbCircle
 10
-141.2567021605
 20
337.1180650509
 30
0.0
 40
1.999999999999702
100
AcDbArc
 50
270.0
 51
0.0001161128
  0
ARC
  5
13A
330
12D
100
AcDbEntity
  8
0
  6
Continuous
 62
     7
100
AcDbCircle
 10
-149.2567010944
 20
337.1180652899
 30
0.0
 40
2.000000239049113
100
AcDbArc
 50
179.9998907355
 51
269.9999931517
  0
ARC
  5
13B
330
12D
100
AcDbEntity
  8
0
  6
Continuous
 62
     7
100
AcDbCircle
 10
-250.1067014385
 20
357.1180649317
 30
0.0
 40
100.0000000000001
100
AcDbArc
 50
351.3023163072
 51
8.6976836928
  0
ARC
  5
13C
330
12D
100
AcDbEntity
  8
0
  6
Continuous
 62
     7
100
AcDbCircle
 10
-149.2567004748
 20
377.1180639538
 30
0.0
 40
2.000000858696481
100
AcDbArc
 50
90.0000245999
 51
180.0000915129
  0
CIRCLE
  5
13D
330
12D
100
AcDbEntity
  8
0
  6
Continuous
 62
     7
100
AcDbCircle
 10
-145.2567026377
 20
282.6180657662
 30
0.0
 40
4.999999999999996
  0
CIRCLE
  5
13E
330
12D
100
AcDbEntity
  8
0
  6
Continuous
 62
     7
100
AcDbCircle
 10
-145.2567026377
 20
503.6180657662
 30
0.0
 40
5.000000000000007
  0
CIRCLE
  5
13F
330
12D
100
AcDbEntity
  8
0
  6
Continuous
 62
     7
100
AcDbCircle
 10
-145.2567026377
 20
282.6180657662
 30
0.0
 40
2.700000000000064
  0
CIRCLE
  5
140
330
12D
100
AcDbEntity
  8
0
  6
Continuous
 62
     7
100
AcDbCircle
 10
-145.2567026377
 20
503.6180657662
 30
0.0
 40
2.700000000000031
  0
ARC
  5
141
330
12D
100
AcDbEntity
  8
0
  6
CENTERX2
 62
     7
100
AcDbCircle
 10
-149.2567004748
 20
377.1180639538
 30
0.0
 40
2.00000085869647
100
AcDbArc
 50
119.1005549129
 51
209.1005422941
  0
ARC
  5
142
330
12D
100
AcDbEntity
  8
0
  6
CENTERX2
 62
     7
100
AcDbCircle
 10
-149.2567010944
 20
337.1180652899
 30
0.0
 40
2.000000239049107
100
AcDbArc
 50
164.701684143
 51
254.7016966652
  0
ARC
  5
143
330
12D
100
AcDbEntity
  8
0
  6
CENTERX2
 62
     7
100
AcDbCircle
 10
-150.7567013512
 20
436.6180653309
 30
0.0
 40
1.999999803136686
100
AcDbArc
 50
180.7545602813
 51
270.7545726759
  0
ARC
  5
144
330
12D
100
AcDbEntity
  8
0
  6
CENTERX2
 62
     7
100
AcDbCircle
 10
-150.7567025251
 20
476.6180648786
 30
0.0
 40
2.000000410711662
100
AcDbArc
 50
104.9461165391
 51
194.9461136553
  0
LINE
  5
145
330
12D
100
AcDbEntity
  8
0
  6
Continuous
 62
     7
100
AcDbLine
 10
-152.7567029358
 20
473.8734983123
 30
0.0
 11
-152.7567029358
 21
476.6180649615
 31
0.0
  0
LINE
  5
146
330
12D
100
AcDbEntity
  8
0
  6
Continuous
 62
     7
100
AcDbLine
 10
-150.7567029358
 20
478.6180652893
 30
0.0
 11
-139.7567023397
 21
478.6180652893
 31
0.0
  0
LINE
  5
147
330
12D
100
AcDbEntity
  8
0
  6
Continuous
 62
     7
100
AcDbLine
 10
-137.7567023397
 20
476.6180649615
 30
0.0
 11
-137.7567023397
 21
473.8734983123
 31
0.0
  0
LINE
  5
148
330
12D
100
AcDbEntity
  8
0
  6
Continuous
 62
     7
100
AcDbLine
 10
-137.7567023397
 20
439.3626325048
 30
0.0
 11
-137.7567023397
 21
436.6180621303
 31
0.0
  0
LINE
  5
149
330
12D
100
AcDbEntity
  8
0
  6
Continuous
 62
     7
100
AcDbLine
 10
-139.7567023397
 20
434.6180655278
 30
0.0
 11
-150.7567029358
 21
434.6180655278
 31
0.0
  0
LINE
  5
14A
330
12D
100
AcDbEntity
  8
0
  6
Continuous
 62
     7
100
AcDbLine
 10
-152.7567011543
 20
436.6180519608
 30
0.0
 11
-152.7567011543
 21
439.3626223353
 31
0.0
  0
LINE
  5
14B
330
12D
100
AcDbEntity
  8
0
  6
Continuous
 62
     7
100
AcDbLine
 10
-149.2567013335
 20
379.1180648125
 30
0.0
 11
-141.2567021605
 21
379.1180648125
 31
0.0
  0
LINE
  5
14C
330
12D
100
AcDbEntity
  8
0
  6
Continuous
 62
     7
100
AcDbLine
 10
-139.2567021605
 20
377.1180607594
 30
0.0
 11
-139.2567021605
 21
372.2401507414
 31
0.0
  0
LINE
  5
14D
330
12D
100
AcDbEntity
  8
0
  6
Continuous
 62
     7
100
AcDbLine
 10
-139.2567021605
 20
341.995979122
 30
0.0
 11
-139.2567021605
 21
337.118069104
 31
0.0
  0
LINE
  5
14E
330
12D
100
AcDbEntity
  8
0
  6
Continuous
 62
     7
100
AcDbLine
 10
-141.2567021605
 20
335.1180650509
 30
0.0
 11
-149.2567013335
 21
335.1180650509
 31
0.0
  0
LINE
  5
14F
330
12D
100
AcDbEntity
  8
0
  6
Continuous
 62
     7
100
AcDbLine
 10
-151.2567013335
 20
337.118069104
 30
0.0
 11
-151.2567013335
 21
341.995979122
 31
0.0
  0
LINE
  5
150
330
12D
100
AcDbEntity
  8
0
  6
Continuous
 62
     7
100
AcDbLine
 10
-151.2567013335
 20
372.2401507414
 30
0.0
 11
-151.2567013335
 21
377.1180607594
 31
0.0
  0
LINE
  5
151
330
12D
100
AcDbEntity
  8
0
  6
Continuous
 62
     7
100
AcDbLine
 10
-133.2567025334
 20
270.6180609978
 30
0.0
 11
-157.2567027421
 21
270.6180609978
 31
0.0
  0
LINE
  5
152
330
12D
100
AcDbEntity
  8
0
  6
Continuous
 62
     7
100
AcDbLine
 10
-133.2567025334
 20
515.6180657662
 30
0.0
 11
-133.2567025334
 21
270.6180609978
 31
0.0
  0
LINE
  5
153
330
12D
100
AcDbEntity
  8
0
  6
Continuous
 62
     7
100
AcDbLine
 10
-157.2567027421
 20
515.6180657662
 30
0.0
 11
-133.2567025334
 21
515.6180657662
 31
0.0
  0
LINE
  5
154
330
12D
100
AcDbEntity
  8
0
  6
Continuous
 62
     7
100
AcDbLine
 10
-157.2567027421
 20
270.6180609978
 30
0.0
 11
-157.2567027421
 21
515.6180657662
 31
0.0
  0
LINE
  5
155
330
12D
100
AcDbEntity
  8
0
  6
CENTERX2
 62
     7
100
AcDbLine
 10
-126.8893128057
 20
357.1180657662
 30
0.0
 11
-156.0782639407
 21
357.1180657662
 31
0.0
  0
LINE
  5
156
330
12D
100
AcDbEntity
  8
0
  6
CENTERX2
 62
     7
100
AcDbLine
 10
-164.3546372779
 20
456.6180657662
 30
0.0
 11
-121.3992571575
 21
456.6180657662
 31
0.0
  0
LINE
  5
157
330
12D
100
AcDbEntity
  8
0
  6
CENTERX2
 62
     7
100
AcDbLine
 10
-145.2567026377
 20
515.6180657662
 30
0.0
 11
-145.2567026377
 21
270.6180609978
 31
0.0
  0
LINE
  5
158
330
12D
100
AcDbEntity
  8
0
  6
CENTERX2
 62
     7
100
AcDbLine
 10
-145.2567026377
 20
287.6180657662
 30
0.0
 11
-145.2567026377
 21
277.6180657662
 31
0.0
  0
LINE
  5
159
330
12D
100
AcDbEntity
  8
0
  6
CENTERX2
 62
     7
100
AcDbLine
 10
-150.2567026377
 20
282.6180657662
 30
0.0
 11
-140.2567026377
 21
282.6180657662
 31
0.0
  0
LINE
  5
15A
330
12D
100
AcDbEntity
  8
0
  6
CENTERX2
 62
     7
100
AcDbLine
 10
-145.2567026377
 20
508.6180657662
 30
0.0
 11
-145.2567026377
 21
498.6180657662
 31
0.0
  0
LINE
  5
15B
330
12D
100
AcDbEntity
  8
0
  6
CENTERX2
 62
     7
100
AcDbLine
 10
-150.2567026377
 20
503.6180657662
 30
0.0
 11
-140.2567026377
 21
503.6180657662
 31
0.0
  0
LINE
  5
15C
330
12D
100
AcDbEntity
  8
0
  6
CENTERX2
 62
     7
100
AcDbLine
 10
-113.0632939723
 20
282.6180657662
 30
0.0
 11
-173.1213753705
 21
282.6180657662
 31
0.0
  0
LINE
  5
15D
330
12D
100
AcDbEntity
  8
0
  6
Continuous
 62
     7
100
AcDbLine
 10
-117.0632939723
 20
297.6180657662
 30
0.0
 11
-117.0632939723
 21
282.6180657662
 31
0.0
  0
LINE
  5
15E
330
12D
100
AcDbEntity
  8
0
  6
Continuous
 62
     7
100
AcDbLine
 10
-169.1213753705
 20
297.6180657662
 30
0.0
 11
-169.1213753705
 21
282.6180657662
 31
0.0
  0
LINE
  5
15F
330
12D
100
AcDbEntity
  8
0
  6
Continuous
 62
     7
100
AcDbLine
 10
-123.3554211468
 20
176.3227057743
 30
0.0
 11
-120.2567021647
 21
173.2239865784
 31
0.0
  0
LINE
  5
160
330
12D
100
AcDbEntity
  8
0
  6
Continuous
 62
     7
100
AcDbLine
 10
-132.3356793737
 20
176.3227057743
 30
0.0
 11
-126.3356794626
 21
170.3227057221
 31
0.0
  0
LINE
  5
161
330
12D
100
AcDbEntity
  8
0
  6
Continuous
 62
     7
100
AcDbLine
 10
-150.2961897314
 20
176.3227057743
 30
0.0
 11
-149.6567023829
 21
175.6832181096
 31
0.0
  0
LINE
  5
162
330
12D
100
AcDbEntity
  8
0
  6
Continuous
 62
     7
100
AcDbLine
 10
-159.2764462368
 20
176.3227057743
 30
0.0
 11
-153.7665747209
 21
170.8128342584
 31
0.0
  0
LINE
  5
163
330
12D
100
AcDbEntity
  8
0
  6
Continuous
 62
     7
100
AcDbLine
 10
-168.256702601
 20
176.3227057743
 30
0.0
 11
-162.2567026899
 21
170.3227057221
 31
0.0
  0
LINE
  5
164
330
12D
100
AcDbEntity
  8
0
  6
Continuous
 62
     7
100
AcDbLine
 10
-138.8567023829
 20
174.9227061804
 30
0.0
 11
-138.8567023829
 21
176.3227057743
 31
0.0
  0
LINE
  5
165
330
12D
100
AcDbEntity
  8
0
  6
Continuous
 62
     7
100
AcDbLine
 10
-138.8567023829
 20
174.9227061804
 30
0.0
 11
-134.256701459
 21
170.3227057221
 31
0.0
  0
LINE
  5
166
330
12D
100
AcDbEntity
  8
0
  6
Continuous
 62
     7
100
AcDbLine
 10
-134.256701459
 20
170.3227057221
 30
0.0
 11
-120.2567021647
 21
170.3227057221
 31
0.0
  0
LINE
  5
167
330
12D
100
AcDbEntity
  8
0
  6
Continuous
 62
     7
100
AcDbLine
 10
-120.2567021647
 20
176.3227057743
 30
0.0
 11
-120.2567021647
 21
170.3227057221
 31
0.0
  0
LINE
  5
168
330
12D
100
AcDbEntity
  8
0
  6
Continuous
 62
     7
100
AcDbLine
 10
-138.8567023829
 20
176.3227057743
 30
0.0
 11
-120.2567021647
 21
176.3227057743
 31
0.0
  0
LINE
  5
169
330
12D
100
AcDbEntity
  8
0
  6
Continuous
 62
     7
100
AcDbLine
 10
-149.6567023829
 20
176.3227057743
 30
0.0
 11
-149.6567023829
 21
174.9227061804
 31
0.0
  0
LINE
  5
16A
330
12D
100
AcDbEntity
  8
0
  6
Continuous
 62
     7
100
AcDbLine
 10
-138.8567023829
 20
174.9227061804
 30
0.0
 11
-149.6567023829
 21
174.9227061804
 31
0.0
  0
LINE
  5
16B
330
12D
100
AcDbEntity
  8
0
  6
Continuous
 62
     7
100
AcDbLine
 10
-138.8567023829
 20
176.3227057743
 30
0.0
 11
-149.6567023829
 21
176.3227057743
 31
0.0
  0
LINE
  5
16C
330
12D
100
AcDbEntity
  8
0
  6
Continuous
 62
     7
100
AcDbLine
 10
-154.2567033068
 20
170.3227057221
 30
0.0
 11
-149.6567023829
 21
174.9227061804
 31
0.0
  0
LINE
  5
16D
330
12D
100
AcDbEntity
  8
0
  6
Continuous
 62
     7
100
AcDbLine
 10
-154.2567033068
 20
170.3227057221
 30
0.0
 11
-134.256701459
 21
170.3227057221
 31
0.0
  0
LINE
  5
16E
330
12D
100
AcDbEntity
  8
0
  6
Continuous
 62
     7
100
AcDbLine
 10
-168.256702601
 20
176.3227057743
 30
0.0
 11
-149.6567023829
 21
176.3227057743
 31
0.0
  0
LINE
  5
16F
330
12D
100
AcDbEntity
  8
0
  6
Continuous
 62
     7
100
AcDbLine
 10
-168.256702601
 20
170.3227057221
 30
0.0
 11
-154.2567033068
 21
170.3227057221
 31
0.0
  0
LINE
  5
170
330
12D
100
AcDbEntity
  8
0
  6
Continuous
 62
     7
100
AcDbLine
 10
-168.256702601
 20
170.3227057221
 30
0.0
 11
-168.256702601
 21
176.3227057743
 31
0.0
  0
LINE
  5
171
330
12D
100
AcDbEntity
  8
0
  6
Continuous
 62
     7
100
AcDbLine
 10
-117.0632939723
 20
282.6180657662
 30
0.0
 11
-118.5632939723
 21
290.6180657662
 31
0.0
  0
LINE
  5
172
330
12D
100
AcDbEntity
  8
0
  6
Continuous
 62
     7
100
AcDbLine
 10
-118.5632939723
 20
290.6180657662
 30
0.0
 11
-115.5632939723
 21
290.6180657662
 31
0.0
  0
LINE
  5
173
330
12D
100
AcDbEntity
  8
0
  6
Continuous
 62
     7
100
AcDbLine
 10
-115.5632939723
 20
290.6180657662
 30
0.0
 11
-117.0632939723
 21
282.6180657662
 31
0.0
  0
LINE
  5
174
330
12D
100
AcDbEntity
  8
0
  6
Continuous
 62
     7
100
AcDbLine
 10
-169.1213753705
 20
282.6180657662
 30
0.0
 11
-170.6213753705
 21
290.6180657662
 31
0.0
  0
LINE
  5
175
330
12D
100
AcDbEntity
  8
0
  6
Continuous
 62
     7
100
AcDbLine
 10
-170.6213753705
 20
290.6180657662
 30
0.0
 11
-167.6213753705
 21
290.6180657662
 31
0.0
  0
LINE
  5
176
330
12D
100
AcDbEntity
  8
0
  6
Continuous
 62
     7
100
AcDbLine
 10
-167.6213753705
 20
290.6180657662
 30
0.0
 11
-169.1213753705
 21
282.6180657662
 31
0.0
  0
LWPOLYLINE
  5
177
330
12D
100
AcDbEntity
  8
0
  6
Continuous
 62
     7
100
AcDbPolyline
 90
       61
 70
   128
 43
0.0
 10
-110.1595163345
 20
302.1821923848
 10
-111.3580941755
 20
300.5282289701
 10
-111.3580941755
 20
300.5282289701
 10
-111.3771490535
 20
300.4043722628
 10
-111.3771490535
 20
300.4043722628
 10
-111.3771490535
 20
298.7637472628
 10
-111.3771490535
 20
298.7637472628
 10
-111.3466612486
 20
298.6684728726
 10
-111.3466612486
 20
298.6684728726
 10
-110.3138868584
 20
297.2565064092
 10
-110.3138868584
 20
297.2565064092
 10
-111.3466612486
 20
295.8197686043
 10
-111.3466612486
 20
295.8197686043
 10
-111.3771490535
 20
295.724494214
 10
-111.3771490535
 20
295.724494214
 10
-111.3771490535
 20
294.0419484823
 10
-111.3771490535
 20
294.0419484823
 10
-111.3466612486
 20
293.9333356775
 10
-111.3466612486
 20
293.9333356775
 10
-110.1271490535
 20
292.277466775
 10
-110.1271490535
 20
292.277466775
 10
-110.0280636876
 20
292.2641283604
 10
-110.0280636876
 20
292.2641283604
 10
-106.5067222242
 20
292.2641283604
 10
-106.5067222242
 20
292.2641283604
 10
-106.4495575901
 20
292.3003326287
 10
-106.4095423462
 20
292.3536862872
 10
-106.3847710047
 20
292.4222838482
 10
-106.3771490535
 20
292.5080307994
 10
-106.3771490535
 20
292.5080307994
 10
-106.3923929559
 20
292.6109271409
 10
-106.4381246633
 20
292.6871466531
 10
-106.4762344194
 20
292.7157289701
 10
-106.5257771023
 20
292.736689336
 10
-106.5886581998
 20
292.7481222628
 10
-106.6629722242
 20
292.7519332384
 10
-106.6629722242
 20
292.7519332384
 10
-107.4747100291
 20
292.7519332384
 10
-107.4747100291
 20
292.7519332384
 10
-107.4747100291
 20
301.7763234823
 10
-107.4747100291
 20
301.7763234823
 10
-106.5181551511
 20
301.7763234823
 10
-106.5181551511
 20
301.7763234823
 10
-106.4628960047
 20
301.8030003116
 10
-106.4228807608
 20
301.8449210433
 10
-106.3923929559
 20
301.9039911653
 10
-106.3771490535
 20
301.9783051897
 10
-106.3771490535
 20
301.9783051897
 10
-106.3885819803
 20
302.0964454336
 10
-106.420975273
 20
302.1860033604
 10
-106.4495575901
 20
302.2203021409
 10
-106.489572834
 20
302.2450734823
 10
-106.5429264925
 20
302.258411897
 10
-106.6058075901
 20
302.2641283604
 10
-106.6058075901
 20
302.2641283604
 10
-106.714420395
 20
302.2641283604
 10
-106.714420395
 20
302.2641283604
 10
-110.0013868584
 20
302.2641283604
 10
-110.0013868584
 20
302.2641283604
 10
-110.0947557608
 20
302.2431679945
 10
-110.1595423462
 20
302.1821923848
  0
LWPOLYLINE
  5
178
330
12D
100
AcDbEntity
  8
0
  6
Continuous
 62
     7
100
AcDbPolyline
 90
       12
 70
   128
 43
0.0
 10
-111.0112667084
 20
300.2881375067
 10
-109.9404112486
 20
301.7763234823
 10
-109.9404112486
 20
301.7763234823
 10
-107.8405636876
 20
301.7763234823
 10
-107.8405636876
 20
301.7763234823
 10
-107.8405636876
 20
297.3860795799
 10
-107.8405636876
 20
297.3860795799
 10
-109.9308838096
 20
297.3860795799
 10
-109.9308838096
 20
297.3860795799
 10
-111.011295395
 20
298.8742655555
 10
-111.011295395
 20
298.8742655555
 10
-111.011295395
 20
300.2881375067
  0
LWPOLYLINE
  5
179
330
12D
100
AcDbEntity
  8
0
  6
Continuous
 62
     7
100
AcDbPolyline
 90
       12
 70
   128
 43
0.0
 10
-111.0112667084
 20
295.4844027506
 10
-109.9308838096
 20
296.8982747019
 10
-109.9308838096
 20
296.8982747019
 10
-107.8405636876
 20
296.8982747019
 10
-107.8405636876
 20
296.8982747019
 10
-107.8405636876
 20
292.7519332384
 10
-107.8405636876
 20
292.7519332384
 10
-109.9404112486
 20
292.7519332384
 10
-109.9404112486
 20
292.7519332384
 10
-111.011295395
 20
294.1658051897
 10
-111.011295395
 20
294.1658051897
 10
-111.011295395
 20
295.4844027506
  0
LWPOLYLINE
  5
17A
330
12D
100
AcDbEntity
  8
0
  6
Continuous
 62
     7
100
AcDbPolyline
 90
       61
 70
   128
 43
0.0
 10
-178.4145832062
 20
304.261028879
 10
-179.6132257374
 20
302.6070654643
 10
-179.6132257374
 20
302.6070654643
 10
-179.6322806154
 20
302.483208757
 10
-179.6322806154
 20
302.483208757
 10
-179.6322806154
 20
300.842583757
 10
-179.6322806154
 20
300.842583757
 10
-179.6017928105
 20
300.7473093668
 10
-179.6017928105
 20
300.7473093668
 10
-178.5690184203
 20
299.3353429034
 10
-178.5690184203
 20
299.3353429034
 10
-179.6017928105
 20
297.8986050985
 10
-179.6017928105
 20
297.8986050985
 10
-179.6322806154
 20
297.8033307082
 10
-179.6322806154
 20
297.8033307082
 10
-179.6322806154
 20
296.1207849765
 10
-179.6322806154
 20
296.1207849765
 10
-179.6017928105
 20
296.0121721717
 10
-179.6017928105
 20
296.0121721717
 10
-178.3822806154
 20
294.3563032692
 10
-178.3822806154
 20
294.3563032692
 10
-178.2831952495
 20
294.3429648546
 10
-178.2831952495
 20
294.3429648546
 10
-174.7618537861
 20
294.3429648546
 10
-174.7618537861
 20
294.3429648546
 10
-174.704689152
 20
294.3791691229
 10
-174.6646739081
 20
294.4325227814
 10
-174.6399025666
 20
294.5011203424
 10
-174.6322806154
 20
294.5868672936
 10
-174.6322806154
 20
294.5868672936
 10
-174.6475245178
 20
294.6897636351
 10
-174.6932562252
 20
294.7659831473
 10
-174.7313659813
 20
294.7945654643
 10
-174.7809086642
 20
294.8155258302
 10
-174.8437897617
 20
294.826958757
 10
-174.9181037861
 20
294.8307697326
 10
-174.9181037861
 20
294.8307697326
 10
-175.729841591
 20
294.8307697326
 10
-175.729841591
 20
294.8307697326
 10
-175.729841591
 20
303.8551599765
 10
-175.729841591
 20
303.8551599765
 10
-174.773286713
 20
303.8551599765
 10
-174.773286713
 20
303.8551599765
 10
-174.7180275666
 20
303.8818368058
 10
-174.6780123227
 20
303.9237575375
 10
-174.6475245178
 20
303.9828276595
 10
-174.6322806154
 20
304.0571416839
 10
-174.6322806154
 20
304.0571416839
 10
-174.6437135422
 20
304.1752819278
 10
-174.6761068349
 20
304.2648398546
 10
-174.704689152
 20
304.2991386351
 10
-174.7447043959
 20
304.3239099765
 10
-174.7980580544
 20
304.3372483912
 10
-174.860939152
 20
304.3429648546
 10
-174.860939152
 20
304.3429648546
 10
-174.9695519569
 20
304.3429648546
 10
-174.9695519569
 20
304.3429648546
 10
-178.2565184203
 20
304.3429648546
 10
-178.2565184203
 20
304.3429648546
 10
-178.3498873227
 20
304.3220044887
 10
-178.4146739081
 20
304.261028879
  0
LWPOLYLINE
  5
17B
330
12D
100
AcDbEntity
  8
0
  6
Continuous
 62
     7
100
AcDbPolyline
 90
       12
 70
   128
 43
0.0
 10
-179.26633358
 20
302.3669740009
 10
-178.1955428105
 20
303.8551599765
 10
-178.1955428105
 20
303.8551599765
 10
-176.0956952495
 20
303.8551599765
 10
-176.0956952495
 20
303.8551599765
 10
-176.0956952495
 20
299.4649160741
 10
-176.0956952495
 20
299.4649160741
 10
-178.1860153715
 20
299.4649160741
 10
-178.1860153715
 20
299.4649160741
 10
-179.2664269569
 20
300.9531020497
 10
-179.2664269569
 20
300.9531020497
 10
-179.2664269569
 20
302.3669740009
  0
LWPOLYLINE
  5
17C
330
12D
100
AcDbEntity
  8
0
  6
Continuous
 62
     7
100
AcDbPolyline
 90
       12
 70
   128
 43
0.0
 10
-179.26633358
 20
297.5632392448
 10
-178.1860153715
 20
298.9771111961
 10
-178.1860153715
 20
298.9771111961
 10
-176.0956952495
 20
298.9771111961
 10
-176.0956952495
 20
298.9771111961
 10
-176.0956952495
 20
294.8307697326
 10
-176.0956952495
 20
294.8307697326
 10
-178.1955428105
 20
294.8307697326
 10
-178.1955428105
 20
294.8307697326
 10
-179.2664269569
 20
296.2446416839
 10
-179.2664269569
 20
296.2446416839
 10
-179.2664269569
 20
297.5632392448
  0
LWPOLYLINE
  5
17D
330
12D
100
AcDbEntity
  8
0
  6
Continuous
 62
     7
100
AcDbPolyline
 90
       61
 70
   128
 43
0.0
 10
-113.7102842331
 20
206.6209866634
 10
-114.549283876
 20
205.4632122732
 10
-114.549283876
 20
205.4632122732
 10
-114.5626222906
 20
205.376512578
 10
-114.5626222906
 20
205.376512578
 10
-114.5626222906
 20
204.228075078
 10
-114.5626222906
 20
204.228075078
 10
-114.5412808272
 20
204.1613830049
 10
-114.5412808272
 20
204.1613830049
 10
-113.818338754
 20
203.1730064805
 10
-113.818338754
 20
203.1730064805
 10
-114.5412808272
 20
202.1672900171
 10
-114.5412808272
 20
202.1672900171
 10
-114.5626222906
 20
202.1005979439
 10
-114.5626222906
 20
202.1005979439
 10
-114.5626222906
 20
200.9228159317
 10
-114.5626222906
 20
200.9228159317
 10
-114.5412808272
 20
200.8467869683
 10
-114.5412808272
 20
200.8467869683
 10
-113.6876222906
 20
199.6876787366
 10
-113.6876222906
 20
199.6876787366
 10
-113.6182625345
 20
199.6783418463
 10
-113.6182625345
 20
199.6783418463
 10
-111.1533235101
 20
199.6783418463
 10
-111.1533235101
 20
199.6783418463
 10
-111.1133082662
 20
199.7036848341
 10
-111.0852975955
 20
199.7410323951
 10
-111.0679576565
 20
199.7890506878
 10
-111.0626222906
 20
199.8490735537
 10
-111.0626222906
 20
199.8490735537
 10
-111.0732930223
 20
199.9211009927
 10
-111.1053052174
 20
199.9744546512
 10
-111.1319820467
 20
199.9944622732
 10
-111.1666619247
 20
200.0091345293
 10
-111.210678693
 20
200.017137578
 10
-111.2626985101
 20
200.019805261
 10
-111.2626985101
 20
200.019805261
 10
-111.8309149735
 20
200.019805261
 10
-111.8309149735
 20
200.019805261
 10
-111.8309149735
 20
206.3368784317
 10
-111.8309149735
 20
206.3368784317
 10
-111.1613265589
 20
206.3368784317
 10
-111.1613265589
 20
206.3368784317
 10
-111.1226451565
 20
206.3555522122
 10
-111.0946344857
 20
206.3848967244
 10
-111.0732930223
 20
206.4262458098
 10
-111.0626222906
 20
206.4782656268
 10
-111.0626222906
 20
206.4782656268
 10
-111.0706253394
 20
206.5609637976
 10
-111.0933006443
 20
206.6236543463
 10
-111.1133082662
 20
206.6476634927
 10
-111.1413189369
 20
206.6650034317
 10
-111.1786664979
 20
206.674340322
 10
-111.2226832662
 20
206.6783418463
 10
-111.2226832662
 20
206.6783418463
 10
-111.2987122296
 20
206.6783418463
 10
-111.2987122296
 20
206.6783418463
 10
-113.599588754
 20
206.6783418463
 10
-113.599588754
 20
206.6783418463
 10
-113.6649469857
 20
206.6636695902
 10
-113.7102975955
 20
206.6209866634
  0
LWPOLYLINE
  5
17E
330
12D
100
AcDbEntity
  8
0
  6
Continuous
 62
     7
100
AcDbPolyline
 90
       12
 70
   128
 43
0.0
 10
-114.3065094948
 20
205.2951482488
 10
-113.5569058272
 20
206.3368784317
 10
-113.5569058272
 20
206.3368784317
 10
-112.0870125345
 20
206.3368784317
 10
-112.0870125345
 20
206.3368784317
 10
-112.0870125345
 20
203.2637077
 10
-112.0870125345
 20
203.2637077
 10
-113.5502366199
 20
203.2637077
 10
-113.5502366199
 20
203.2637077
 10
-114.3065247296
 20
204.3054378829
 10
-114.3065247296
 20
204.3054378829
 10
-114.3065247296
 20
205.2951482488
  0
LWPOLYLINE
  5
17F
330
12D
100
AcDbEntity
  8
0
  6
Continuous
 62
     7
100
AcDbPolyline
 90
       12
 70
   128
 43
0.0
 10
-114.3065094948
 20
201.9325339195
 10
-113.5502366199
 20
202.9222442854
 10
-113.5502366199
 20
202.9222442854
 10
-112.0870125345
 20
202.9222442854
 10
-112.0870125345
 20
202.9222442854
 10
-112.0870125345
 20
200.019805261
 10
-112.0870125345
 20
200.019805261
 10
-113.5569058272
 20
200.019805261
 10
-113.5569058272
 20
200.019805261
 10
-114.3065247296
 20
201.0095156268
 10
-114.3065247296
 20
201.0095156268
 10
-114.3065247296
 20
201.9325339195
  0
LWPOLYLINE
  5
180
330
12D
100
AcDbEntity
  8
0
  6
Continuous
 62
     7
100
AcDbPolyline
 90
       29
 70
   128
 43
0.0
 10
-119.1563606262
 20
203.3490735537
 10
-119.2137274735
 20
203.3037229439
 10
-119.2510750345
 20
203.2276939805
 10
-119.2510750345
 20
203.2276939805
 10
-119.2564104004
 20
203.189012578
 10
-119.2577442418
 20
203.1356589195
 10
-119.2577442418
 20
203.1356589195
 10
-119.252408876
 20
203.079637578
 10
-119.2377366199
 20
203.0129455049
 10
-119.2230643638
 20
202.9809333098
 10
-119.197721376
 20
202.955590322
 10
-119.1617076565
 20
202.9355827
 10
-119.1150232052
 20
202.9222442854
 10
-119.1150232052
 20
202.9222442854
 10
-115.951151254
 20
202.9222442854
 10
-115.951151254
 20
202.9222442854
 10
-115.8924622296
 20
202.9675948951
 10
-115.8497793028
 20
203.0436238585
 10
-115.8497793028
 20
203.0436238585
 10
-115.8444439369
 20
203.0849729439
 10
-115.8431100955
 20
203.1463296512
 10
-115.8431100955
 20
203.1463296512
 10
-115.8551146686
 20
203.2423662366
 10
-115.8911283882
 20
203.3090583098
 10
-115.8911283882
 20
203.3090583098
 10
-115.9191390589
 20
203.3290659317
 10
-115.9644896686
 20
203.3490735537
 10
-115.9644896686
 20
203.3490735537
 10
-119.1563722906
 20
203.3490735537
  0
LWPOLYLINE
  5
181
330
12D
100
AcDbEntity
  8
0
  6
Continuous
 62
     7
100
AcDbPolyline
 90
       61
 70
   128
 43
0.0
 10
-123.2712268829
 20
206.6209866634
 10
-124.1102594857
 20
205.4632122732
 10
-124.1102594857
 20
205.4632122732
 10
-124.1235979004
 20
205.376512578
 10
-124.1235979004
 20
205.376512578
 10
-124.1235979004
 20
204.228075078
 10
-124.1235979004
 20
204.228075078
 10
-124.1022564369
 20
204.1613830049
 10
-124.1022564369
 20
204.1613830049
 10
-123.3793143638
 20
203.1730064805
 10
-123.3793143638
 20
203.1730064805
 10
-124.1022564369
 20
202.1672900171
 10
-124.1022564369
 20
202.1672900171
 10
-124.1235979004
 20
202.1005979439
 10
-124.1235979004
 20
202.1005979439
 10
-124.1235979004
 20
200.9228159317
 10
-124.1235979004
 20
200.9228159317
 10
-124.1022564369
 20
200.8467869683
 10
-124.1022564369
 20
200.8467869683
 10
-123.2485979004
 20
199.6876787366
 10
-123.2485979004
 20
199.6876787366
 10
-123.1792381443
 20
199.6783418463
 10
-123.1792381443
 20
199.6783418463
 10
-120.7142991199
 20
199.6783418463
 10
-120.7142991199
 20
199.6783418463
 10
-120.674283876
 20
199.7036848341
 10
-120.6462732052
 20
199.7410323951
 10
-120.6289332662
 20
199.7890506878
 10
-120.6235979004
 20
199.8490735537
 10
-120.6235979004
 20
199.8490735537
 10
-120.6342686321
 20
199.9211009927
 10
-120.6662808272
 20
199.9744546512
 10
-120.6929576565
 20
199.9944622732
 10
-120.7276375345
 20
200.0091345293
 10
-120.7716543028
 20
200.017137578
 10
-120.8236741199
 20
200.019805261
 10
-120.8236741199
 20
200.019805261
 10
-121.3918905833
 20
200.019805261
 10
-121.3918905833
 20
200.019805261
 10
-121.3918905833
 20
206.3368784317
 10
-121.3918905833
 20
206.3368784317
 10
-120.7223021686
 20
206.3368784317
 10
-120.7223021686
 20
206.3368784317
 10
-120.6836207662
 20
206.3555522122
 10
-120.6556100955
 20
206.3848967244
 10
-120.6342686321
 20
206.4262458098
 10
-120.6235979004
 20
206.4782656268
 10
-120.6235979004
 20
206.4782656268
 10
-120.6316009491
 20
206.5609637976
 10
-120.654276254
 20
206.6236543463
 10
-120.674283876
 20
206.6476634927
 10
-120.7022945467
 20
206.6650034317
 10
-120.7396421077
 20
206.674340322
 10
-120.783658876
 20
206.6783418463
 10
-120.783658876
 20
206.6783418463
 10
-120.8596878394
 20
206.6783418463
 10
-120.8596878394
 20
206.6783418463
 10
-123.1605643638
 20
206.6783418463
 10
-123.1605643638
 20
206.6783418463
 10
-123.2259225955
 20
206.6636695902
 10
-123.2712732052
 20
206.6209866634
  0
LWPOLYLINE
  5
182
330
12D
100
AcDbEntity
  8
0
  6
Continuous
 62
     7
100
AcDbPolyline
 90
       12
 70
   128
 43
0.0
 10
-123.8674521446
 20
205.2951482488
 10
-123.1178814369
 20
206.3368784317
 10
-123.1178814369
 20
206.3368784317
 10
-121.6479881443
 20
206.3368784317
 10
-121.6479881443
 20
206.3368784317
 10
-121.6479881443
 20
203.2637077
 10
-121.6479881443
 20
203.2637077
 10
-123.1112122296
 20
203.2637077
 10
-123.1112122296
 20
203.2637077
 10
-123.8675003394
 20
204.3054378829
 10
-123.8675003394
 20
204.3054378829
 10
-123.8675003394
 20
205.2951482488
  0
LWPOLYLINE
  5
183
330
12D
100
AcDbEntity
  8
0
  6
Continuous
 62
     7
100
AcDbPolyline
 90
       12
 70
   128
 43
0.0
 10
-123.8674521446
 20
201.9325339195
 10
-123.1112122296
 20
202.9222442854
 10
-123.1112122296
 20
202.9222442854
 10
-121.6479881443
 20
202.9222442854
 10
-121.6479881443
 20
202.9222442854
 10
-121.6479881443
 20
200.019805261
 10
-121.6479881443
 20
200.019805261
 10
-123.1178814369
 20
200.019805261
 10
-123.1178814369
 20
200.019805261
 10
-123.8675003394
 20
201.0095156268
 10
-123.8675003394
 20
201.0095156268
 10
-123.8675003394
 20
201.9325339195
  0
POINT
  5
184
330
12D
100
AcDbEntity
  8
0
  6
Continuous
 62
     7
100
AcDbPoint
 10
-137.7567023397
 20
478.6180652893
 30
0.0
  0
POINT
  5
185
330
12D
100
AcDbEntity
  8
0
  6
Continuous
 62
     7
100
AcDbPoint
 10
-137.7567023397
 20
434.6180655278
 30
0.0
  0
POINT
  5
186
330
12D
100
AcDbEntity
  8
0
  6
Continuous
 62
     7
100
AcDbPoint
 10
-139.2567021605
 20
456.6180654085
 30
0.0
  0
POINT
  5
187
330
12D
100
AcDbEntity
  8
0
  6
Continuous
 62
     7
100
AcDbPoint
 10
-151.2567013335
 20
456.6180654085
 30
0.0
  0
POINT
  5
188
330
12D
100
AcDbEntity
  8
0
  6
Continuous
 62
     7
100
AcDbPoint
 10
-152.7567029358
 20
434.6180655278
 30
0.0
  0
POINT
  5
189
330
12D
100
AcDbEntity
  8
0
  6
Continuous
 62
     7
100
AcDbPoint
 10
-140.4067027421
 20
357.1180657662
 30
0.0
  0
POINT
  5
18A
330
12D
100
AcDbEntity
  8
0
  6
Continuous
 62
     7
100
AcDbPoint
 10
-150.1067027421
 20
357.1180657662
 30
0.0
  0
POINT
  5
18B
330
12D
100
AcDbEntity
  8
0
  6
Continuous
 62
     7
100
AcDbPoint
 10
-138.8567023829
 20
176.3227057743
 30
0.0
  0
POINT
  5
18C
330
12D
100
AcDbEntity
  8
0
  6
Continuous
 62
     7
100
AcDbPoint
 10
-149.6567023829
 20
176.3227057743
 30
0.0
  0
POINT
  5
18D
330
12D
100
AcDbEntity
  8
0
  6
Continuous
 62
     7
100
AcDbPoint
 10
-154.2567033068
 20
170.3227057221
 30
0.0
  0
VIEWPORT
  5
322
330
12D
100
AcDbEntity
  8
0
100
AcDbViewport
 10
0.0
 20
0.0
 30
0.0
 40
205.6
 41
156.0
 68
     1
 69
     1
 12
143.0047148344
 22
342.9703857442
 13
0.0
 23
0.0
 14
10.0
 24
10.0
 15
10.0
 25
10.0
 16
0.0
 26
0.0
 36
1.0
 17
0.0
 27
0.0
 37
0.0
 42
50.0
 43
0.0
 44
0.0
 45
352.2012672449
 50
0.0
 51
0.0
 72
   100
 90
   557152
  1

281
     0
 71
     1
 74
     0
110
0.0
120
0.0
130
0.0
111
1.0
121
0.0
131
0.0
112
0.0
122
1.0
132
0.0
 79
     0
146
0.0
170
     0
 61
     5
348
2F
292
     1
282
     1
141
0.0
142
0.0
 63
   256
361
323
  0
ENDBLK
  5
130
330
12D
100
AcDbEntity
  8
0
100
AcDbBlockEnd
  0
BLOCK
  5
190
330
18E
100
AcDbEntity
  8
0
100
AcDbBlockBegin
  2
*Paper_Space2
 70
     0
 10
0.0
 20
0.0
 30
0.0
  3
*Paper_Space2
  1

  0
VIEWPORT
  5
324
330
18E
100
AcDbEntity
  8
0
100
AcDbViewport
 10
0.0
 20
0.0
 30
0.0
 40
205.6
 41
156.0
 68
     1
 69
     1
 12
143.0047148344
 22
342.9703857442
 13
0.0
 23
0.0
 14
10.0
 24
10.0
 15
10.0
 25
10.0
 16
0.0
 26
0.0
 36
1.0
 17
0.0
 27
0.0
 37
0.0
 42
50.0
 43
0.0
 44
0.0
 45
352.2012672449
 50
0.0
 51
0.0
 72
   100
 90
   557152
  1

281
     0
 71
     1
 74
     0
110
0.0
120
0.0
130
0.0
111
1.0
121
0.0
131
0.0
112
0.0
122
1.0
132
0.0
 79
     0
146
0.0
170
     0
 61
     5
348
2F
292
     1
282
     1
141
0.0
142
0.0
 63
   256
361
325
  0
ENDBLK
  5
191
330
18E
100
AcDbEntity
  8
0
100
AcDbBlockEnd
  0
BLOCK
  5
194
330
192
100
AcDbEntity
  8
0
100
AcDbBlockBegin
  2
*Paper_Space3
 70
     0
 10
0.0
 20
0.0
 30
0.0
  3
*Paper_Space3
  1

  0
VIEWPORT
  5
326
330
192
100
AcDbEntity
  8
0
100
AcDbViewport
 10
0.0
 20
0.0
 30
0.0
 40
205.6
 41
156.0
 68
     1
 69
     1
 12
143.0047148344
 22
342.9703857442
 13
0.0
 23
0.0
 14
10.0
 24
10.0
 15
10.0
 25
10.0
 16
0.0
 26
0.0
 36
1.0
 17
0.0
 27
0.0
 37
0.0
 42
50.0
 43
0.0
 44
0.0
 45
352.2012672449
 50
0.0
 51
0.0
 72
   100
 90
   557152
  1

281
     0
 71
     1
 74
     0
110
0.0
120
0.0
130
0.0
111
1.0
121
0.0
131
0.0
112
0.0
122
1.0
132
0.0
 79
     0
146
0.0
170
     0
 61
     5
348
2F
292
     1
282
     1
141
0.0
142
0.0
 63
   256
361
327
  0
ENDBLK
  5
195
330
192
100
AcDbEntity
  8
0
100
AcDbBlockEnd
  0
BLOCK
  5
198
330
196
100
AcDbEntity
  8
0
100
AcDbBlockBegin
  2
*Paper_Space4
 70
     0
 10
0.0
 20
0.0
 30
0.0
  3
*Paper_Space4
  1

  0
VIEWPORT
  5
328
330
196
100
AcDbEntity
  8
0
100
AcDbViewport
 10
0.0
 20
0.0
 30
0.0
 40
205.6
 41
156.0
 68
     1
 69
     1
 12
143.0047148344
 22
342.9703857442
 13
0.0
 23
0.0
 14
10.0
 24
10.0
 15
10.0
 25
10.0
 16
0.0
 26
0.0
 36
1.0
 17
0.0
 27
0.0
 37
0.0
 42
50.0
 43
0.0
 44
0.0
 45
352.2012672449
 50
0.0
 51
0.0
 72
   100
 90
   557152
  1

281
     0
 71
     1
 74
     0
110
0.0
120
0.0
130
0.0
111
1.0
121
0.0
131
0.0
112
0.0
122
1.0
132
0.0
 79
     0
146
0.0
170
     0
 61
     5
348
2F
292
     1
282
     1
141
0.0
142
0.0
 63
   256
361
329
  0
ENDBLK
  5
199
330
196
100
AcDbEntity
  8
0
100
AcDbBlockEnd
  0
BLOCK
  5
19C
330
19A
100
AcDbEntity
  8
0
100
AcDbBlockBegin
  2
*Paper_Space5
 70
     0
 10
0.0
 20
0.0
 30
0.0
  3
*Paper_Space5
  1

  0
ARC
  5
19E
330
19A
100
AcDbEntity
  8
0
  6
Continuous
 62
     7
100
AcDbCircle
 10
251.2567013335
 20
456.618055239
 30
0.0
 40
100.0000000000001
100
AcDbArc
 50
170.0636276075
 51
189.9363664771
  0
ARC
  5
19F
330
19A
100
AcDbEntity
  8
0
  6
Continuous
 62
     7
100
AcDbCircle
 10
150.7567025251
 20
476.6180648786
 30
0.0
 40
2.000000410711763
100
AcDbArc
 50
0.0000023752
 51
89.999988234
  0
ARC
  5
1A0
330
19A
100
AcDbEntity
  8
0
  6
Continuous
 62
     7
100
AcDbCircle
 10
139.7567023397
 20
476.6180652893
 30
0.0
 40
2.000000000000055
100
AcDbArc
 50
90.0
 51
180.0000093908
  0
ARC
  5
1A1
330
19A
100
AcDbEntity
  8
0
  6
Continuous
 62
     7
100
AcDbCircle
 10
39.2567021605
 20
456.6180654085
 30
0.0
 40
100.0
100
AcDbArc
 50
350.0636335229
 51
9.9363664771
  0
ARC
  5
1A2
330
19A
100
AcDbEntity
  8
0
  6
Continuous
 62
     7
100
AcDbCircle
 10
139.7567023397
 20
436.6180655278
 30
0.0
 40
2.000000000000044
100
AcDbArc
 50
180.0000973312
 51
270.0
  0
ARC
  5
1A3
330
19A
100
AcDbEntity
  8
0
  6
Continuous
 62
     7
100
AcDbCircle
 10
150.7567013512
 20
436.6180653309
 30
0.0
 40
1.9999998031367
100
AcDbArc
 50
270.0000453958
 51
359.9996169731
  0
ARC
  5
1A4
330
19A
100
AcDbEntity
  8
0
  6
Continuous
 62
     7
100
AcDbCircle
 10
141.2567021605
 20
377.1180648125
 30
0.0
 40
1.99999999999973
100
AcDbArc
 50
90.0
 51
180.0001161128
  0
ARC
  5
1A5
330
19A
100
AcDbEntity
  8
0
  6
Continuous
 62
     7
100
AcDbCircle
 10
40.4067020555
 20
357.1180649317
 30
0.0
 40
100.0
100
AcDbArc
 50
351.3023163072
 51
8.6976836928
  0
ARC
  5
1A6
330
19A
100
AcDbEntity
  8
0
  6
Continuous
 62
     7
100
AcDbCircle
 10
141.2567021605
 20
337.1180650509
 30
0.0
 40
1.999999999999702
100
AcDbArc
 50
179.9998838872
 51
270.0
  0
ARC
  5
1A7
330
19A
100
AcDbEntity
  8
0
  6
Continuous
 62
     7
100
AcDbCircle
 10
149.2567010944
 20
337.1180652899
 30
0.0
 40
2.000000239049113
100
AcDbArc
 50
270.0000068483
 51
0.0001092645
  0
ARC
  5
1A8
330
19A
100
AcDbEntity
  8
0
  6
Continuous
 62
     7
100
AcDbCircle
 10
250.1067014385
 20
357.1180649317
 30
0.0
 40
100.0000000000001
100
AcDbArc
 50
171.3023163072
 51
188.6976836928
  0
ARC
  5
1A9
330
19A
100
AcDbEntity
  8
0
  6
Continuous
 62
     7
100
AcDbCircle
 10
149.2567004748
 20
377.1180639538
 30
0.0
 40
2.000000858696481
100
AcDbArc
 50
359.9999084871
 51
89.9999754001
  0
CIRCLE
  5
1AA
330
19A
100
AcDbEntity
  8
0
  6
Continuous
 62
     7
100
AcDbCircle
 10
145.2567026377
 20
282.6180657662
 30
0.0
 40
4.999999999999996
  0
CIRCLE
  5
1AB
330
19A
100
AcDbEntity
  8
0
  6
Continuous
 62
     7
100
AcDbCircle
 10
145.2567026377
 20
503.6180657662
 30
0.0
 40
5.000000000000007
  0
CIRCLE
  5
1AC
330
19A
100
AcDbEntity
  8
0
  6
Continuous
 62
     7
100
AcDbCircle
 10
145.2567026377
 20
282.6180657662
 30
0.0
 40
2.700000000000064
  0
CIRCLE
  5
1AD
330
19A
100
AcDbEntity
  8
0
  6
Continuous
 62
     7
100
AcDbCircle
 10
145.2567026377
 20
503.6180657662
 30
0.0
 40
2.700000000000031
  0
ARC
  5
1AE
330
19A
100
AcDbEntity
  8
0
  6
CENTERX2
 62
     7
100
AcDbCircle
 10
149.2567004748
 20
377.1180639538
 30
0.0
 40
2.00000085869647
100
AcDbArc
 50
330.8994577059
 51
60.8994450871
  0
ARC
  5
1AF
330
19A
100
AcDbEntity
  8
0
  6
CENTERX2
 62
     7
100
AcDbCircle
 10
149.2567010944
 20
337.1180652899
 30
0.0
 40
2.000000239049107
100
AcDbArc
 50
285.2983033348
 51
15.298315857
  0
ARC
  5
1B0
330
19A
100
AcDbEntity
  8
0
  6
CENTERX2
 62
     7
100
AcDbCircle
 10
150.7567013512
 20
436.6180653309
 30
0.0
 40
1.999999803136686
100
AcDbArc
 50
269.2454273241
 51
359.2454397187
  0
ARC
  5
1B1
330
19A
100
AcDbEntity
  8
0
  6
CENTERX2
 62
     7
100
AcDbCircle
 10
150.7567025251
 20
476.6180648786
 30
0.0
 40
2.000000410711662
100
AcDbArc
 50
345.0538863447
 51
75.0538834609
  0
LINE
  5
1B2
330
19A
100
AcDbEntity
  8
0
  6
Continuous
 62
     7
100
AcDbLine
 10
152.7567029358
 20
473.8734983123
 30
0.0
 11
152.7567029358
 21
476.6180649615
 31
0.0
  0
LINE
  5
1B3
330
19A
100
AcDbEntity
  8
0
  6
Continuous
 62
     7
100
AcDbLine
 10
150.7567029358
 20
478.6180652893
 30
0.0
 11
139.7567023397
 21
478.6180652893
 31
0.0
  0
LINE
  5
1B4
330
19A
100
AcDbEntity
  8
0
  6
Continuous
 62
     7
100
AcDbLine
 10
137.7567023397
 20
476.6180649615
 30
0.0
 11
137.7567023397
 21
473.8734983123
 31
0.0
  0
LINE
  5
1B5
330
19A
100
AcDbEntity
  8
0
  6
Continuous
 62
     7
100
AcDbLine
 10
137.7567023397
 20
439.3626325048
 30
0.0
 11
137.7567023397
 21
436.6180621303
 31
0.0
  0
LINE
  5
1B6
330
19A
100
AcDbEntity
  8
0
  6
Continuous
 62
     7
100
AcDbLine
 10
139.7567023397
 20
434.6180655278
 30
0.0
 11
150.7567029358
 21
434.6180655278
 31
0.0
  0
LINE
  5
1B7
330
19A
100
AcDbEntity
  8
0
  6
Continuous
 62
     7
100
AcDbLine
 10
152.7567011543
 20
436.6180519608
 30
0.0
 11
152.7567011543
 21
439.3626223353
 31
0.0
  0
LINE
  5
1B8
330
19A
100
AcDbEntity
  8
0
  6
Continuous
 62
     7
100
AcDbLine
 10
149.2567013335
 20
379.1180648125
 30
0.0
 11
141.2567021605
 21
379.1180648125
 31
0.0
  0
LINE
  5
1B9
330
19A
100
AcDbEntity
  8
0
  6
Continuous
 62
     7
100
AcDbLine
 10
139.2567021605
 20
377.1180607594
 30
0.0
 11
139.2567021605
 21
372.2401507414
 31
0.0
  0
LINE
  5
1BA
330
19A
100
AcDbEntity
  8
0
  6
Continuous
 62
     7
100
AcDbLine
 10
139.2567021605
 20
341.995979122
 30
0.0
 11
139.2567021605
 21
337.118069104
 31
0.0
  0
LINE
  5
1BB
330
19A
100
AcDbEntity
  8
0
  6
Continuous
 62
     7
100
AcDbLine
 10
141.2567021605
 20
335.1180650509
 30
0.0
 11
149.2567013335
 21
335.1180650509
 31
0.0
  0
LINE
  5
1BC
330
19A
100
AcDbEntity
  8
0
  6
Continuous
 62
     7
100
AcDbLine
 10
151.2567013335
 20
337.118069104
 30
0.0
 11
151.2567013335
 21
341.995979122
 31
0.0
  0
LINE
  5
1BD
330
19A
100
AcDbEntity
  8
0
  6
Continuous
 62
     7
100
AcDbLine
 10
151.2567013335
 20
372.2401507414
 30
0.0
 11
151.2567013335
 21
377.1180607594
 31
0.0
  0
LINE
  5
1BE
330
19A
100
AcDbEntity
  8
0
  6
Continuous
 62
     7
100
AcDbLine
 10
133.2567025334
 20
270.6180609978
 30
0.0
 11
157.2567027421
 21
270.6180609978
 31
0.0
  0
LINE
  5
1BF
330
19A
100
AcDbEntity
  8
0
  6
Continuous
 62
     7
100
AcDbLine
 10
133.2567025334
 20
515.6180657662
 30
0.0
 11
133.2567025334
 21
270.6180609978
 31
0.0
  0
LINE
  5
1C0
330
19A
100
AcDbEntity
  8
0
  6
Continuous
 62
     7
100
AcDbLine
 10
157.2567027421
 20
515.6180657662
 30
0.0
 11
133.2567025334
 21
515.6180657662
 31
0.0
  0
LINE
  5
1C1
330
19A
100
AcDbEntity
  8
0
  6
Continuous
 62
     7
100
AcDbLine
 10
157.2567027421
 20
270.6180609978
 30
0.0
 11
157.2567027421
 21
515.6180657662
 31
0.0
  0
LINE
  5
1C2
330
19A
100
AcDbEntity
  8
0
  6
CENTERX2
 62
     7
100
AcDbLine
 10
126.8893128057
 20
357.1180657662
 30
0.0
 11
156.0782639407
 21
357.1180657662
 31
0.0
  0
LINE
  5
1C3
330
19A
100
AcDbEntity
  8
0
  6
CENTERX2
 62
     7
100
AcDbLine
 10
164.3546372779
 20
456.6180657662
 30
0.0
 11
121.3992571575
 21
456.6180657662
 31
0.0
  0
LINE
  5
1C4
330
19A
100
AcDbEntity
  8
0
  6
CENTERX2
 62
     7
100
AcDbLine
 10
145.2567026377
 20
515.6180657662
 30
0.0
 11
145.2567026377
 21
270.6180609978
 31
0.0
  0
LINE
  5
1C5
330
19A
100
AcDbEntity
  8
0
  6
CENTERX2
 62
     7
100
AcDbLine
 10
145.2567026377
 20
287.6180657662
 30
0.0
 11
145.2567026377
 21
277.6180657662
 31
0.0
  0
LINE
  5
1C6
330
19A
100
AcDbEntity
  8
0
  6
CENTERX2
 62
     7
100
AcDbLine
 10
150.2567026377
 20
282.6180657662
 30
0.0
 11
140.2567026377
 21
282.6180657662
 31
0.0
  0
LINE
  5
1C7
330
19A
100
AcDbEntity
  8
0
  6
CENTERX2
 62
     7
100
AcDbLine
 10
145.2567026377
 20
508.6180657662
 30
0.0
 11
145.2567026377
 21
498.6180657662
 31
0.0
  0
LINE
  5
1C8
330
19A
100
AcDbEntity
  8
0
  6
CENTERX2
 62
     7
100
AcDbLine
 10
150.2567026377
 20
503.6180657662
 30
0.0
 11
140.2567026377
 21
503.6180657662
 31
0.0
  0
LINE
  5
1C9
330
19A
100
AcDbEntity
  8
0
  6
CENTERX2
 62
     7
100
AcDbLine
 10
113.0632939723
 20
282.6180657662
 30
0.0
 11
173.1213753705
 21
282.6180657662
 31
0.0
  0
LINE
  5
1CA
330
19A
100
AcDbEntity
  8
0
  6
Continuous
 62
     7
100
AcDbLine
 10
117.0632939723
 20
297.6180657662
 30
0.0
 11
117.0632939723
 21
282.6180657662
 31
0.0
  0
LINE
  5
1CB
330
19A
100
AcDbEntity
  8
0
  6
Continuous
 62
     7
100
AcDbLine
 10
169.1213753705
 20
297.6180657662
 30
0.0
 11
169.1213753705
 21
282.6180657662
 31
0.0
  0
LINE
  5
1CC
330
19A
100
AcDbEntity
  8
0
  6
Continuous
 62
     7
100
AcDbLine
 10
123.3554211468
 20
176.3227057743
 30
0.0
 11
120.2567021647
 21
173.2239865784
 31
0.0
  0
LINE
  5
1CD
330
19A
100
AcDbEntity
  8
0
  6
Continuous
 62
     7
100
AcDbLine
 10
132.3356793737
 20
176.3227057743
 30
0.0
 11
126.3356794626
 21
170.3227057221
 31
0.0
  0
LINE
  5
1CE
330
19A
100
AcDbEntity
  8
0
  6
Continuous
 62
     7
100
AcDbLine
 10
150.2961897314
 20
176.3227057743
 30
0.0
 11
149.6567023829
 21
175.6832181096
 31
0.0
  0
LINE
  5
1CF
330
19A
100
AcDbEntity
  8
0
  6
Continuous
 62
     7
100
AcDbLine
 10
159.2764462368
 20
176.3227057743
 30
0.0
 11
153.7665747209
 21
170.8128342584
 31
0.0
  0
LINE
  5
1D0
330
19A
100
AcDbEntity
  8
0
  6
Continuous
 62
     7
100
AcDbLine
 10
168.256702601
 20
176.3227057743
 30
0.0
 11
162.2567026899
 21
170.3227057221
 31
0.0
  0
LINE
  5
1D1
330
19A
100
AcDbEntity
  8
0
  6
Continuous
 62
     7
100
AcDbLine
 10
138.8567023829
 20
174.9227061804
 30
0.0
 11
138.8567023829
 21
176.3227057743
 31
0.0
  0
LINE
  5
1D2
330
19A
100
AcDbEntity
  8
0
  6
Continuous
 62
     7
100
AcDbLine
 10
138.8567023829
 20
174.9227061804
 30
0.0
 11
134.256701459
 21
170.3227057221
 31
0.0
  0
LINE
  5
1D3
330
19A
100
AcDbEntity
  8
0
  6
Continuous
 62
     7
100
AcDbLine
 10
134.256701459
 20
170.3227057221
 30
0.0
 11
120.2567021647
 21
170.3227057221
 31
0.0
  0
LINE
  5
1D4
330
19A
100
AcDbEntity
  8
0
  6
Continuous
 62
     7
100
AcDbLine
 10
120.2567021647
 20
176.3227057743
 30
0.0
 11
120.2567021647
 21
170.3227057221
 31
0.0
  0
LINE
  5
1D5
330
19A
100
AcDbEntity
  8
0
  6
Continuous
 62
     7
100
AcDbLine
 10
138.8567023829
 20
176.3227057743
 30
0.0
 11
120.2567021647
 21
176.3227057743
 31
0.0
  0
LINE
  5
1D6
330
19A
100
AcDbEntity
  8
0
  6
Continuous
 62
     7
100
AcDbLine
 10
149.6567023829
 20
176.3227057743
 30
0.0
 11
149.6567023829
 21
174.9227061804
 31
0.0
  0
LINE
  5
1D7
330
19A
100
AcDbEntity
  8
0
  6
Continuous
 62
     7
100
AcDbLine
 10
138.8567023829
 20
174.9227061804
 30
0.0
 11
149.6567023829
 21
174.9227061804
 31
0.0
  0
LINE
  5
1D8
330
19A
100
AcDbEntity
  8
0
  6
Continuous
 62
     7
100
AcDbLine
 10
138.8567023829
 20
176.3227057743
 30
0.0
 11
149.6567023829
 21
176.3227057743
 31
0.0
  0
LINE
  5
1D9
330
19A
100
AcDbEntity
  8
0
  6
Continuous
 62
     7
100
AcDbLine
 10
154.2567033068
 20
170.3227057221
 30
0.0
 11
149.6567023829
 21
174.9227061804
 31
0.0
  0
LINE
  5
1DA
330
19A
100
AcDbEntity
  8
0
  6
Continuous
 62
     7
100
AcDbLine
 10
154.2567033068
 20
170.3227057221
 30
0.0
 11
134.256701459
 21
170.3227057221
 31
0.0
  0
LINE
  5
1DB
330
19A
100
AcDbEntity
  8
0
  6
Continuous
 62
     7
100
AcDbLine
 10
168.256702601
 20
176.3227057743
 30
0.0
 11
149.6567023829
 21
176.3227057743
 31
0.0
  0
LINE
  5
1DC
330
19A
100
AcDbEntity
  8
0
  6
Continuous
 62
     7
100
AcDbLine
 10
168.256702601
 20
170.3227057221
 30
0.0
 11
154.2567033068
 21
170.3227057221
 31
0.0
  0
LINE
  5
1DD
330
19A
100
AcDbEntity
  8
0
  6
Continuous
 62
     7
100
AcDbLine
 10
168.256702601
 20
170.3227057221
 30
0.0
 11
168.256702601
 21
176.3227057743
 31
0.0
  0
LINE
  5
1DE
330
19A
100
AcDbEntity
  8
0
  6
Continuous
 62
     7
100
AcDbLine
 10
117.0632939723
 20
282.6180657662
 30
0.0
 11
118.5632939723
 21
290.6180657662
 31
0.0
  0
LINE
  5
1DF
330
19A
100
AcDbEntity
  8
0
  6
Continuous
 62
     7
100
AcDbLine
 10
118.5632939723
 20
290.6180657662
 30
0.0
 11
115.5632939723
 21
290.6180657662
 31
0.0
  0
LINE
  5
1E0
330
19A
100
AcDbEntity
  8
0
  6
Continuous
 62
     7
100
AcDbLine
 10
115.5632939723
 20
290.6180657662
 30
0.0
 11
117.0632939723
 21
282.6180657662
 31
0.0
  0
LINE
  5
1E1
330
19A
100
AcDbEntity
  8
0
  6
Continuous
 62
     7
100
AcDbLine
 10
169.1213753705
 20
282.6180657662
 30
0.0
 11
170.6213753705
 21
290.6180657662
 31
0.0
  0
LINE
  5
1E2
330
19A
100
AcDbEntity
  8
0
  6
Continuous
 62
     7
100
AcDbLine
 10
170.6213753705
 20
290.6180657662
 30
0.0
 11
167.6213753705
 21
290.6180657662
 31
0.0
  0
LINE
  5
1E3
330
19A
100
AcDbEntity
  8
0
  6
Continuous
 62
     7
100
AcDbLine
 10
167.6213753705
 20
290.6180657662
 30
0.0
 11
169.1213753705
 21
282.6180657662
 31
0.0
  0
LWPOLYLINE
  5
1E4
330
19A
100
AcDbEntity
  8
0
  6
Continuous
 62
     7
100
AcDbPolyline
 90
       61
 70
   128
 43
0.0
 10
110.1595163345
 20
302.1821923848
 10
111.3580941755
 20
300.5282289701
 10
111.3580941755
 20
300.5282289701
 10
111.3771490535
 20
300.4043722628
 10
111.3771490535
 20
300.4043722628
 10
111.3771490535
 20
298.7637472628
 10
111.3771490535
 20
298.7637472628
 10
111.3466612486
 20
298.6684728726
 10
111.3466612486
 20
298.6684728726
 10
110.3138868584
 20
297.2565064092
 10
110.3138868584
 20
297.2565064092
 10
111.3466612486
 20
295.8197686043
 10
111.3466612486
 20
295.8197686043
 10
111.3771490535
 20
295.724494214
 10
111.3771490535
 20
295.724494214
 10
111.3771490535
 20
294.0419484823
 10
111.3771490535
 20
294.0419484823
 10
111.3466612486
 20
293.9333356775
 10
111.3466612486
 20
293.9333356775
 10
110.1271490535
 20
292.277466775
 10
110.1271490535
 20
292.277466775
 10
110.0280636876
 20
292.2641283604
 10
110.0280636876
 20
292.2641283604
 10
106.5067222242
 20
292.2641283604
 10
106.5067222242
 20
292.2641283604
 10
106.4495575901
 20
292.3003326287
 10
106.4095423462
 20
292.3536862872
 10
106.3847710047
 20
292.4222838482
 10
106.3771490535
 20
292.5080307994
 10
106.3771490535
 20
292.5080307994
 10
106.3923929559
 20
292.6109271409
 10
106.4381246633
 20
292.6871466531
 10
106.4762344194
 20
292.7157289701
 10
106.5257771023
 20
292.736689336
 10
106.5886581998
 20
292.7481222628
 10
106.6629722242
 20
292.7519332384
 10
106.6629722242
 20
292.7519332384
 10
107.4747100291
 20
292.7519332384
 10
107.4747100291
 20
292.7519332384
 10
107.4747100291
 20
301.7763234823
 10
107.4747100291
 20
301.7763234823
 10
106.5181551511
 20
301.7763234823
 10
106.5181551511
 20
301.7763234823
 10
106.4628960047
 20
301.8030003116
 10
106.4228807608
 20
301.8449210433
 10
106.3923929559
 20
301.9039911653
 10
106.3771490535
 20
301.9783051897
 10
106.3771490535
 20
301.9783051897
 10
106.3885819803
 20
302.0964454336
 10
106.420975273
 20
302.1860033604
 10
106.4495575901
 20
302.2203021409
 10
106.489572834
 20
302.2450734823
 10
106.5429264925
 20
302.258411897
 10
106.6058075901
 20
302.2641283604
 10
106.6058075901
 20
302.2641283604
 10
106.714420395
 20
302.2641283604
 10
106.714420395
 20
302.2641283604
 10
110.0013868584
 20
302.2641283604
 10
110.0013868584
 20
302.2641283604
 10
110.0947557608
 20
302.2431679945
 10
110.1595423462
 20
302.1821923848
  0
LWPOLYLINE
  5
1E5
330
19A
100
AcDbEntity
  8
0
  6
Continuous
 62
     7
100
AcDbPolyline
 90
       12
 70
   128
 43
0.0
 10
111.0112667084
 20
300.2881375067
 10
109.9404112486
 20
301.7763234823
 10
109.9404112486
 20
301.7763234823
 10
107.8405636876
 20
301.7763234823
 10
107.8405636876
 20
301.7763234823
 10
107.8405636876
 20
297.3860795799
 10
107.8405636876
 20
297.3860795799
 10
109.9308838096
 20
297.3860795799
 10
109.9308838096
 20
297.3860795799
 10
111.011295395
 20
298.8742655555
 10
111.011295395
 20
298.8742655555
 10
111.011295395
 20
300.2881375067
  0
LWPOLYLINE
  5
1E6
330
19A
100
AcDbEntity
  8
0
  6
Continuous
 62
     7
100
AcDbPolyline
 90
       12
 70
   128
 43
0.0
 10
111.0112667084
 20
295.4844027506
 10
109.9308838096
 20
296.8982747019
 10
109.9308838096
 20
296.8982747019
 10
107.8405636876
 20
296.8982747019
 10
107.8405636876
 20
296.8982747019
 10
107.8405636876
 20
292.7519332384
 10
107.8405636876
 20
292.7519332384
 10
109.9404112486
 20
292.7519332384
 10
109.9404112486
 20
292.7519332384
 10
111.011295395
 20
294.1658051897
 10
111.011295395
 20
294.1658051897
 10
111.011295395
 20
295.4844027506
  0
LWPOLYLINE
  5
1E7
330
19A
100
AcDbEntity
  8
0
  6
Continuous
 62
     7
100
AcDbPolyline
 90
       61
 70
   128
 43
0.0
 10
178.4145832062
 20
304.261028879
 10
179.6132257374
 20
302.6070654643
 10
179.6132257374
 20
302.6070654643
 10
179.6322806154
 20
302.483208757
 10
179.6322806154
 20
302.483208757
 10
179.6322806154
 20
300.842583757
 10
179.6322806154
 20
300.842583757
 10
179.6017928105
 20
300.7473093668
 10
179.6017928105
 20
300.7473093668
 10
178.5690184203
 20
299.3353429034
 10
178.5690184203
 20
299.3353429034
 10
179.6017928105
 20
297.8986050985
 10
179.6017928105
 20
297.8986050985
 10
179.6322806154
 20
297.8033307082
 10
179.6322806154
 20
297.8033307082
 10
179.6322806154
 20
296.1207849765
 10
179.6322806154
 20
296.1207849765
 10
179.6017928105
 20
296.0121721717
 10
179.6017928105
 20
296.0121721717
 10
178.3822806154
 20
294.3563032692
 10
178.3822806154
 20
294.3563032692
 10
178.2831952495
 20
294.3429648546
 10
178.2831952495
 20
294.3429648546
 10
174.7618537861
 20
294.3429648546
 10
174.7618537861
 20
294.3429648546
 10
174.704689152
 20
294.3791691229
 10
174.6646739081
 20
294.4325227814
 10
174.6399025666
 20
294.5011203424
 10
174.6322806154
 20
294.5868672936
 10
174.6322806154
 20
294.5868672936
 10
174.6475245178
 20
294.6897636351
 10
174.6932562252
 20
294.7659831473
 10
174.7313659813
 20
294.7945654643
 10
174.7809086642
 20
294.8155258302
 10
174.8437897617
 20
294.826958757
 10
174.9181037861
 20
294.8307697326
 10
174.9181037861
 20
294.8307697326
 10
175.729841591
 20
294.8307697326
 10
175.729841591
 20
294.8307697326
 10
175.729841591
 20
303.8551599765
 10
175.729841591
 20
303.8551599765
 10
174.773286713
 20
303.8551599765
 10
174.773286713
 20
303.8551599765
 10
174.7180275666
 20
303.8818368058
 10
174.6780123227
 20
303.9237575375
 10
174.6475245178
 20
303.9828276595
 10
174.6322806154
 20
304.0571416839
 10
174.6322806154
 20
304.0571416839
 10
174.6437135422
 20
304.1752819278
 10
174.6761068349
 20
304.2648398546
 10
174.704689152
 20
304.2991386351
 10
174.7447043959
 20
304.3239099765
 10
174.7980580544
 20
304.3372483912
 10
174.860939152
 20
304.3429648546
 10
174.860939152
 20
304.3429648546
 10
174.9695519569
 20
304.3429648546
 10
174.9695519569
 20
304.3429648546
 10
178.2565184203
 20
304.3429648546
 10
178.2565184203
 20
304.3429648546
 10
178.3498873227
 20
304.3220044887
 10
178.4146739081
 20
304.261028879
  0
LWPOLYLINE
  5
1E8
330
19A
100
AcDbEntity
  8
0
  6
Continuous
 62
     7
100
AcDbPolyline
 90
       12
 70
   128
 43
0.0
 10
179.26633358
 20
302.3669740009
 10
178.1955428105
 20
303.8551599765
 10
178.1955428105
 20
303.8551599765
 10
176.0956952495
 20
303.8551599765
 10
176.0956952495
 20
303.8551599765
 10
176.0956952495
 20
299.4649160741
 10
176.0956952495
 20
299.4649160741
 10
178.1860153715
 20
299.4649160741
 10
178.1860153715
 20
299.4649160741
 10
179.2664269569
 20
300.9531020497
 10
179.2664269569
 20
300.9531020497
 10
179.2664269569
 20
302.3669740009
  0
LWPOLYLINE
  5
1E9
330
19A
100
AcDbEntity
  8
0
  6
Continuous
 62
     7
100
AcDbPolyline
 90
       12
 70
   128
 43
0.0
 10
179.26633358
 20
297.5632392448
 10
178.1860153715
 20
298.9771111961
 10
178.1860153715
 20
298.9771111961
 10
176.0956952495
 20
298.9771111961
 10
176.0956952495
 20
298.9771111961
 10
176.0956952495
 20
294.8307697326
 10
176.0956952495
 20
294.8307697326
 10
178.1955428105
 20
294.8307697326
 10
178.1955428105
 20
294.8307697326
 10
179.2664269569
 20
296.2446416839
 10
179.2664269569
 20
296.2446416839
 10
179.2664269569
 20
297.5632392448
  0
LWPOLYLINE
  5
1EA
330
19A
100
AcDbEntity
  8
0
  6
Continuous
 62
     7
100
AcDbPolyline
 90
       61
 70
   128
 43
0.0
 10
113.7102842331
 20
206.6209866634
 10
114.549283876
 20
205.4632122732
 10
114.549283876
 20
205.4632122732
 10
114.5626222906
 20
205.376512578
 10
114.5626222906
 20
205.376512578
 10
114.5626222906
 20
204.228075078
 10
114.5626222906
 20
204.228075078
 10
114.5412808272
 20
204.1613830049
 10
114.5412808272
 20
204.1613830049
 10
113.818338754
 20
203.1730064805
 10
113.818338754
 20
203.1730064805
 10
114.5412808272
 20
202.1672900171
 10
114.5412808272
 20
202.1672900171
 10
114.5626222906
 20
202.1005979439
 10
114.5626222906
 20
202.1005979439
 10
114.5626222906
 20
200.9228159317
 10
114.5626222906
 20
200.9228159317
 10
114.5412808272
 20
200.8467869683
 10
114.5412808272
 20
200.8467869683
 10
113.6876222906
 20
199.6876787366
 10
113.6876222906
 20
199.6876787366
 10
113.6182625345
 20
199.6783418463
 10
113.6182625345
 20
199.6783418463
 10
111.1533235101
 20
199.6783418463
 10
111.1533235101
 20
199.6783418463
 10
111.1133082662
 20
199.7036848341
 10
111.0852975955
 20
199.7410323951
 10
111.0679576565
 20
199.7890506878
 10
111.0626222906
 20
199.8490735537
 10
111.0626222906
 20
199.8490735537
 10
111.0732930223
 20
199.9211009927
 10
111.1053052174
 20
199.9744546512
 10
111.1319820467
 20
199.9944622732
 10
111.1666619247
 20
200.0091345293
 10
111.210678693
 20
200.017137578
 10
111.2626985101
 20
200.019805261
 10
111.2626985101
 20
200.019805261
 10
111.8309149735
 20
200.019805261
 10
111.8309149735
 20
200.019805261
 10
111.8309149735
 20
206.3368784317
 10
111.8309149735
 20
206.3368784317
 10
111.1613265589
 20
206.3368784317
 10
111.1613265589
 20
206.3368784317
 10
111.1226451565
 20
206.3555522122
 10
111.0946344857
 20
206.3848967244
 10
111.0732930223
 20
206.4262458098
 10
111.0626222906
 20
206.4782656268
 10
111.0626222906
 20
206.4782656268
 10
111.0706253394
 20
206.5609637976
 10
111.0933006443
 20
206.6236543463
 10
111.1133082662
 20
206.6476634927
 10
111.1413189369
 20
206.6650034317
 10
111.1786664979
 20
206.674340322
 10
111.2226832662
 20
206.6783418463
 10
111.2226832662
 20
206.6783418463
 10
111.2987122296
 20
206.6783418463
 10
111.2987122296
 20
206.6783418463
 10
113.599588754
 20
206.6783418463
 10
113.599588754
 20
206.6783418463
 10
113.6649469857
 20
206.6636695902
 10
113.7102975955
 20
206.6209866634
  0
LWPOLYLINE
  5
1EB
330
19A
100
AcDbEntity
  8
0
  6
Continuous
 62
     7
100
AcDbPolyline
 90
       12
 70
   128
 43
0.0
 10
114.3065094948
 20
205.2951482488
 10
113.5569058272
 20
206.3368784317
 10
113.5569058272
 20
206.3368784317
 10
112.0870125345
 20
206.3368784317
 10
112.0870125345
 20
206.3368784317
 10
112.0870125345
 20
203.2637077
 10
112.0870125345
 20
203.2637077
 10
113.5502366199
 20
203.2637077
 10
113.5502366199
 20
203.2637077
 10
114.3065247296
 20
204.3054378829
 10
114.3065247296
 20
204.3054378829
 10
114.3065247296
 20
205.2951482488
  0
LWPOLYLINE
  5
1EC
330
19A
100
AcDbEntity
  8
0
  6
Continuous
 62
     7
100
AcDbPolyline
 90
       12
 70
   128
 43
0.0
 10
114.3065094948
 20
201.9325339195
 10
113.5502366199
 20
202.9222442854
 10
113.5502366199
 20
202.9222442854
 10
112.0870125345
 20
202.9222442854
 10
112.0870125345
 20
202.9222442854
 10
112.0870125345
 20
200.019805261
 10
112.0870125345
 20
200.019805261
 10
113.5569058272
 20
200.019805261
 10
113.5569058272
 20
200.019805261
 10
114.3065247296
 20
201.0095156268
 10
114.3065247296
 20
201.0095156268
 10
114.3065247296
 20
201.9325339195
  0
LWPOLYLINE
  5
1ED
330
19A
100
AcDbEntity
  8
0
  6
Continuous
 62
     7
100
AcDbPolyline
 90
       29
 70
   128
 43
0.0
 10
119.1563606262
 20
203.3490735537
 10
119.2137274735
 20
203.3037229439
 10
119.2510750345
 20
203.2276939805
 10
119.2510750345
 20
203.2276939805
 10
119.2564104004
 20
203.189012578
 10
119.2577442418
 20
203.1356589195
 10
119.2577442418
 20
203.1356589195
 10
119.252408876
 20
203.079637578
 10
119.2377366199
 20
203.0129455049
 10
119.2230643638
 20
202.9809333098
 10
119.197721376
 20
202.955590322
 10
119.1617076565
 20
202.9355827
 10
119.1150232052
 20
202.9222442854
 10
119.1150232052
 20
202.9222442854
 10
115.951151254
 20
202.9222442854
 10
115.951151254
 20
202.9222442854
 10
115.8924622296
 20
202.9675948951
 10
115.8497793028
 20
203.0436238585
 10
115.8497793028
 20
203.0436238585
 10
115.8444439369
 20
203.0849729439
 10
115.8431100955
 20
203.1463296512
 10
115.8431100955
 20
203.1463296512
 10
115.8551146686
 20
203.2423662366
 10
115.8911283882
 20
203.3090583098
 10
115.8911283882
 20
203.3090583098
 10
115.9191390589
 20
203.3290659317
 10
115.9644896686
 20
203.3490735537
 10
115.9644896686
 20
203.3490735537
 10
119.1563722906
 20
203.3490735537
  0
LWPOLYLINE
  5
1EE
330
19A
100
AcDbEntity
  8
0
  6
Continuous
 62
     7
100
AcDbPolyline
 90
       61
 70
   128
 43
0.0
 10
123.2712268829
 20
206.6209866634
 10
124.1102594857
 20
205.4632122732
 10
124.1102594857
 20
205.4632122732
 10
124.1235979004
 20
205.376512578
 10
124.1235979004
 20
205.376512578
 10
124.1235979004
 20
204.228075078
 10
124.1235979004
 20
204.228075078
 10
124.1022564369
 20
204.1613830049
 10
124.1022564369
 20
204.1613830049
 10
123.3793143638
 20
203.1730064805
 10
123.3793143638
 20
203.1730064805
 10
124.1022564369
 20
202.1672900171
 10
124.1022564369
 20
202.1672900171
 10
124.1235979004
 20
202.1005979439
 10
124.1235979004
 20
202.1005979439
 10
124.1235979004
 20
200.9228159317
 10
124.1235979004
 20
200.9228159317
 10
124.1022564369
 20
200.8467869683
 10
124.1022564369
 20
200.8467869683
 10
123.2485979004
 20
199.6876787366
 10
123.2485979004
 20
199.6876787366
 10
123.1792381443
 20
199.6783418463
 10
123.1792381443
 20
199.6783418463
 10
120.7142991199
 20
199.6783418463
 10
120.7142991199
 20
199.6783418463
 10
120.674283876
 20
199.7036848341
 10
120.6462732052
 20
199.7410323951
 10
120.6289332662
 20
199.7890506878
 10
120.6235979004
 20
199.8490735537
 10
120.6235979004
 20
199.8490735537
 10
120.6342686321
 20
199.9211009927
 10
120.6662808272
 20
199.9744546512
 10
120.6929576565
 20
199.9944622732
 10
120.7276375345
 20
200.0091345293
 10
120.7716543028
 20
200.017137578
 10
120.8236741199
 20
200.019805261
 10
120.8236741199
 20
200.019805261
 10
121.3918905833
 20
200.019805261
 10
121.3918905833
 20
200.019805261
 10
121.3918905833
 20
206.3368784317
 10
121.3918905833
 20
206.3368784317
 10
120.7223021686
 20
206.3368784317
 10
120.7223021686
 20
206.3368784317
 10
120.6836207662
 20
206.3555522122
 10
120.6556100955
 20
206.3848967244
 10
120.6342686321
 20
206.4262458098
 10
120.6235979004
 20
206.4782656268
 10
120.6235979004
 20
206.4782656268
 10
120.6316009491
 20
206.5609637976
 10
120.654276254
 20
206.6236543463
 10
120.674283876
 20
206.6476634927
 10
120.7022945467
 20
206.6650034317
 10
120.7396421077
 20
206.674340322
 10
120.783658876
 20
206.6783418463
 10
120.783658876
 20
206.6783418463
 10
120.8596878394
 20
206.6783418463
 10
120.8596878394
 20
206.6783418463
 10
123.1605643638
 20
206.6783418463
 10
123.1605643638
 20
206.6783418463
 10
123.2259225955
 20
206.6636695902
 10
123.2712732052
 20
206.6209866634
  0
LWPOLYLINE
  5
1EF
330
19A
100
AcDbEntity
  8
0
  6
Continuous
 62
     7
100
AcDbPolyline
 90
       12
 70
   128
 43
0.0
 10
123.8674521446
 20
205.2951482488
 10
123.1178814369
 20
206.3368784317
 10
123.1178814369
 20
206.3368784317
 10
121.6479881443
 20
206.3368784317
 10
121.6479881443
 20
206.3368784317
 10
121.6479881443
 20
203.2637077
 10
121.6479881443
 20
203.2637077
 10
123.1112122296
 20
203.2637077
 10
123.1112122296
 20
203.2637077
 10
123.8675003394
 20
204.3054378829
 10
123.8675003394
 20
204.3054378829
 10
123.8675003394
 20
205.2951482488
  0
LWPOLYLINE
  5
1F0
330
19A
100
AcDbEntity
  8
0
  6
Continuous
 62
     7
100
AcDbPolyline
 90
       12
 70
   128
 43
0.0
 10
123.8674521446
 20
201.9325339195
 10
123.1112122296
 20
202.9222442854
 10
123.1112122296
 20
202.9222442854
 10
121.6479881443
 20
202.9222442854
 10
121.6479881443
 20
202.9222442854
 10
121.6479881443
 20
200.019805261
 10
121.6479881443
 20
200.019805261
 10
123.1178814369
 20
200.019805261
 10
123.1178814369
 20
200.019805261
 10
123.8675003394
 20
201.0095156268
 10
123.8675003394
 20
201.0095156268
 10
123.8675003394
 20
201.9325339195
  0
POINT
  5
1F1
330
19A
100
AcDbEntity
  8
0
  6
Continuous
 62
     7
100
AcDbPoint
 10
137.7567023397
 20
478.6180652893
 30
0.0
  0
POINT
  5
1F2
330
19A
100
AcDbEntity
  8
0
  6
Continuous
 62
     7
100
AcDbPoint
 10
137.7567023397
 20
434.6180655278
 30
0.0
  0
POINT
  5
1F3
330
19A
100
AcDbEntity
  8
0
  6
Continuous
 62
     7
100
AcDbPoint
 10
139.2567021605
 20
456.6180654085
 30
0.0
  0
POINT
  5
1F4
330
19A
100
AcDbEntity
  8
0
  6
Continuous
 62
     7
100
AcDbPoint
 10
151.2567013335
 20
456.6180654085
 30
0.0
  0
POINT
  5
1F5
330
19A
100
AcDbEntity
  8
0
  6
Continuous
 62
     7
100
AcDbPoint
 10
152.7567029358
 20
434.6180655278
 30
0.0
  0
POINT
  5
1F6
330
19A
100
AcDbEntity
  8
0
  6
Continuous
 62
     7
100
AcDbPoint
 10
140.4067027421
 20
357.1180657662
 30
0.0
  0
POINT
  5
1F7
330
19A
100
AcDbEntity
  8
0
  6
Continuous
 62
     7
100
AcDbPoint
 10
150.1067027421
 20
357.1180657662
 30
0.0
  0
POINT
  5
1F8
330
19A
100
AcDbEntity
  8
0
  6
Continuous
 62
     7
100
AcDbPoint
 10
138.8567023829
 20
176.3227057743
 30
0.0
  0
POINT
  5
1F9
330
19A
100
AcDbEntity
  8
0
  6
Continuous
 62
     7
100
AcDbPoint
 10
149.6567023829
 20
176.3227057743
 30
0.0
  0
POINT
  5
1FA
330
19A
100
AcDbEntity
  8
0
  6
Continuous
 62
     7
100
AcDbPoint
 10
154.2567033068
 20
170.3227057221
 30
0.0
  0
VIEWPORT
  5
32A
330
19A
100
AcDbEntity
  8
0
100
AcDbViewport
 10
0.0
 20
0.0
 30
0.0
 40
205.6
 41
156.0
 68
     1
 69
     1
 12
143.0047148344
 22
342.9703857442
 13
0.0
 23
0.0
 14
10.0
 24
10.0
 15
10.0
 25
10.0
 16
0.0
 26
0.0
 36
1.0
 17
0.0
 27
0.0
 37
0.0
 42
50.0
 43
0.0
 44
0.0
 45
352.2012672449
 50
0.0
 51
0.0
 72
   100
 90
   557152
  1

281
     0
 71
     1
 74
     0
110
0.0
120
0.0
130
0.0
111
1.0
121
0.0
131
0.0
112
0.0
122
1.0
132
0.0
 79
     0
146
0.0
170
     0
 61
     5
348
2F
292
     1
282
     1
141
0.0
142
0.0
 63
   256
361
32B
  0
ENDBLK
  5
19D
330
19A
100
AcDbEntity
  8
0
100
AcDbBlockEnd
  0
BLOCK
  5
1FD
330
1FB
100
AcDbEntity
  8
0
100
AcDbBlockBegin
  2
*Paper_Space6
 70
     0
 10
0.0
 20
0.0
 30
0.0
  3
*Paper_Space6
  1

  0
LWPOLYLINE
  5
1FF
330
1FB
100
AcDbEntity
  8
0
  6
Continuous
 62
     7
100
AcDbPolyline
 90
        9
 70
   128
 43
0.0
 10
443.0944645988
 20
131.0811782939
 10
439.6008427624
 20
129.5993655694
 10
436.2217564735
 20
128.0315320679
 10
432.9635564299
 20
126.3806243957
 10
429.8323661348
 20
124.64974529
 10
426.8340703871
 20
122.8421477871
 10
423.9743042224
 20
120.961229109
 10
421.2584423219
 20
119.0105242781
 10
418.6915889111
 20
116.9936994743
  0
LWPOLYLINE
  5
200
330
1FB
100
AcDbEntity
  8
0
  6
Continuous
 62
     7
100
AcDbPolyline
 90
        9
 70
   128
 43
0.0
 10
445.0351662879
 20
132.2015215319
 10
445.2838919544
 20
132.3764819185
 10
445.4687118054
 20
132.5760927789
 10
445.5825233202
 20
132.7926831821
 10
445.6209527872
 20
133.0179296829
 10
445.5825233841
 20
133.2431761873
 10
445.4687119309
 20
133.4597666012
 10
445.2838921365
 20
133.6593774791
 10
445.0351665197
 20
133.8343378893
  0
LWPOLYLINE
  5
201
330
1FB
100
AcDbEntity
  8
0
  6
Continuous
 62
     7
100
AcDbPolyline
 90
        9
 70
   128
 43
0.0
 10
437.2569915051
 20
138.3245827477
 10
436.9539183747
 20
138.4681690293
 10
436.6081447318
 20
138.5748632571
 10
436.2329584662
 20
138.6405652308
 10
435.8427777788
 20
138.66275006
 10
435.4525970978
 20
138.6405651939
 10
435.0774108509
 20
138.5748631847
 10
434.7316372382
 20
138.4681689242
 10
434.4285641486
 20
138.3245826139
  0
LWPOLYLINE
  5
202
330
1FB
100
AcDbEntity
  8
0
  6
Continuous
 62
     7
100
AcDbPolyline
 90
        9
 70
   128
 43
0.0
 10
408.0849952224
 20
123.1167639803
 10
411.5786157706
 20
124.5985764591
 10
414.957700826
 20
126.1664096576
 10
418.2158996969
 20
127.8173169719
 10
421.347088886
 20
129.5481956674
 10
424.3453835999
 20
131.3557927105
 10
427.2051488083
 20
133.2367108822
 10
429.9210098352
 20
135.1874151628
 10
432.4878624595
 20
137.2042393759
  0
LWPOLYLINE
  5
203
330
1FB
100
AcDbEntity
  8
0
  6
Continuous
 62
     7
100
AcDbPolyline
 90
        9
 70
   128
 43
0.0
 10
406.1442908992
 20
121.9964192217
 10
405.8955659877
 20
121.8214588073
 10
405.7107468238
 20
121.621848024
 10
405.5969358889
 20
121.4052577858
 10
405.5585068639
 20
121.1800115161
 10
405.5969365517
 20
120.9547652841
 10
405.7107481239
 20
120.7381751575
 10
405.8955678753
 20
120.5385645555
 10
406.1442933016
 20
120.3636043849
  0
LWPOLYLINE
  5
204
330
1FB
100
AcDbEntity
  8
0
  6
Continuous
 62
     7
100
AcDbPolyline
 90
        9
 70
   128
 43
0.0
 10
413.9224683161
 20
115.8733595266
 10
414.2255400254
 20
115.7297740104
 10
414.5713118393
 20
115.6230801826
 10
414.9464960671
 20
115.5573781883
 10
415.336674726
 20
115.5351928944
 10
415.7268536114
 20
115.557376861
 10
416.1020385099
 20
115.623077579
 10
416.4478114129
 20
115.7297702305
 10
416.7508845878
 20
115.8733547157
  0
LWPOLYLINE
  5
205
330
1FB
100
AcDbEntity
  8
0
  6
Continuous
 62
     7
100
AcDbPolyline
 90
        9
 70
   128
 43
0.0
 10
367.960526485
 20
97.0959729792
 10
367.6574529674
 20
97.2395594101
 10
367.3116788512
 20
97.3462536943
 10
366.9364920759
 20
97.4119556196
 10
366.546310896
 20
97.4341402915
 10
366.1561297941
 20
97.4119551632
 10
365.7809432494
 20
97.3462527989
 10
365.4351695078
 20
97.2395581102
 10
365.1320964943
 20
97.0959713247
  0
LWPOLYLINE
  5
206
330
1FB
100
AcDbEntity
  8
0
  6
Continuous
 62
     7
100
AcDbPolyline
 90
        9
 70
   128
 43
0.0
 10
340.2970343991
 20
82.7589951482
 10
343.3121421356
 20
84.0892685181
 10
346.2376478842
 20
85.484624763
 10
349.0693386511
 20
86.9430544433
 10
351.8031365449
 20
88.4624572882
 10
354.4351046485
 20
90.0406452195
 10
356.9614526893
 20
91.6753455037
 10
359.3785424968
 20
93.364204024
 10
361.6828932425
 20
95.1047886709
  0
LWPOLYLINE
  5
207
330
1FB
100
AcDbEntity
  8
0
  6
Continuous
 62
     7
100
AcDbPolyline
 90
        9
 70
   128
 43
0.0
 10
336.8478311473
 20
80.7678124945
 10
336.5991045894
 20
80.5928521679
 10
336.414283942
 20
80.3932412357
 10
336.3004717771
 20
80.1766506538
 10
336.2620418437
 20
79.9514038981
 10
336.3004709864
 20
79.7261570975
 10
336.4142823909
 20
79.5095663824
 10
336.5991023376
 20
79.3099552339
 10
336.8478282813
 20
79.1349946164
  0
LWPOLYLINE
  5
208
330
1FB
100
AcDbEntity
  8
0
  6
Continuous
 62
     7
100
AcDbPolyline
 90
        9
 70
   128
 43
0.0
 10
342.5046819461
 20
75.8693625067
 10
342.8077554799
 20
75.7257760986
 10
343.1535295988
 20
75.6190818328
 10
343.5287163671
 20
75.5533799192
 10
343.918897535
 20
75.5311952515
 10
344.309078625
 20
75.5533803757
 10
344.6842651626
 20
75.6190827282
 10
345.030038907
 20
75.7257773985
 10
345.3331119368
 20
75.8693641612
  0
LWPOLYLINE
  5
209
330
1FB
100
AcDbEntity
  8
0
  6
Continuous
 62
     7
100
AcDbPolyline
 90
        9
 70
   128
 43
0.0
 10
370.168174032
 20
90.2063403376
 10
367.1530662954
 20
88.8760669677
 10
364.2275605468
 20
87.4807107229
 10
361.3958697799
 20
86.0222810425
 10
358.6620718861
 20
84.5028781977
 10
356.0301037825
 20
82.9246902663
 10
353.5037557418
 20
81.2899899821
 10
351.0866659342
 20
79.6011314618
 10
348.7823151885
 20
77.8605468149
  0
LWPOLYLINE
  5
20A
330
1FB
100
AcDbEntity
  8
0
  6
Continuous
 62
     7
100
AcDbPolyline
 90
        9
 70
   128
 43
0.0
 10
373.6173772837
 20
92.1975229913
 10
373.866103699
 20
92.3724833516
 10
374.0509242323
 20
92.5720942894
 10
374.1647363236
 20
92.7886848569
 10
374.2031662316
 20
93.0139315877
 10
374.1647371143
 20
93.2391783635
 10
374.0509257834
 20
93.4557690642
 10
373.8661059508
 20
93.6553802182
 10
373.6173801497
 20
93.8303408694
  0
LWPOLYLINE
  5
20B
330
1FB
100
AcDbEntity
  8
0
  6
Continuous
 62
     7
100
AcDbPolyline
 90
       17
 70
   128
 43
0.0
 10
306.9678882014
 20
54.7163647327
 10
307.5301312289
 20
55.7948126786
 10
307.3346740169
 20
56.915378517
 10
306.411273154
 20
57.907466257
 10
304.900508051
 20
58.6200395334
 10
303.0323789997
 20
58.9446155244
 10
301.0912917134
 20
58.8317804777
 10
299.3727591357
 20
58.2987125062
 10
298.1384122728
 20
57.4265663764
 10
297.5761692452
 20
56.3481184305
 10
297.7716264572
 20
55.2275525921
 10
298.6950273201
 20
54.2354648521
 10
300.2057924231
 20
53.5228915757
 10
302.0739214745
 20
53.1983155847
 10
304.0150087607
 20
53.3111506314
 10
305.7335413384
 20
53.8442186029
 10
306.9678882014
 20
54.7163647327
  0
LWPOLYLINE
  5
20C
330
1FB
100
AcDbEntity
  8
0
  6
Continuous
 62
     7
100
AcDbPolyline
 90
       17
 70
   128
 43
0.0
 10
463.2384868436
 20
144.9294610891
 10
463.8007298711
 20
146.007909035
 10
463.6052726591
 20
147.1284748734
 10
462.6818717962
 20
148.1205626134
 10
461.1711066932
 20
148.8331358898
 10
459.3029776419
 20
149.1577118808
 10
457.3618903557
 20
149.0448768341
 10
455.6433577779
 20
148.5118088626
 10
454.409010915
 20
147.6396627328
 10
453.8467678874
 20
146.5612147869
 10
454.0422250995
 20
145.4406489485
 10
454.9656259623
 20
144.4485612085
 10
456.4763910654
 20
143.7359879321
 10
458.3445201167
 20
143.4114119411
 10
460.2856074029
 20
143.5242469878
 10
462.0041399807
 20
144.0573149593
 10
463.2384868436
 20
144.9294610891
  0
LWPOLYLINE
  5
20D
330
1FB
100
AcDbEntity
  8
0
  6
Continuous
 62
     7
100
AcDbPolyline
 90
       17
 70
   128
 43
0.0
 10
304.9371087378
 20
55.3397111107
 10
305.2407199726
 20
55.9220730015
 10
305.1351730782
 20
56.5271785543
 10
304.6365366122
 20
57.0629059339
 10
303.8207234566
 20
57.4476955031
 10
302.8119337689
 20
57.6229665383
 10
301.7637466343
 20
57.562035613
 10
300.8357390423
 20
57.2741789084
 10
300.1691917363
 20
56.8032199983
 10
299.8655805015
 20
56.2208581075
 10
299.971127396
 20
55.6157525548
 10
300.4697638619
 20
55.0800251752
 10
301.2855770175
 20
54.695235606
 10
302.2943667053
 20
54.5199645708
 10
303.3425538398
 20
54.5808954961
 10
304.2705614318
 20
54.8687522006
 10
304.9371087378
 20
55.3397111107
  0
LWPOLYLINE
  5
20E
330
1FB
100
AcDbEntity
  8
0
  6
Continuous
 62
     7
100
AcDbPolyline
 90
       17
 70
   128
 43
0.0
 10
461.20770738
 20
145.5528074672
 10
461.5113186149
 20
146.135169358
 10
461.4057717204
 20
146.7402749107
 10
460.9071352544
 20
147.2760022903
 10
460.0913220988
 20
147.6607918595
 10
459.0825324111
 20
147.8360628947
 10
458.0343452765
 20
147.7751319694
 10
457.1063376845
 20
147.4872752649
 10
456.4397903786
 20
147.0163163548
 10
456.1361791437
 20
146.433954464
 10
456.2417260382
 20
145.8288489112
 10
456.7403625041
 20
145.2931215316
 10
457.5561756598
 20
144.9083319624
 10
458.5649653475
 20
144.7330609272
 10
459.613152482
 20
144.7939918525
 10
460.541160074
 20
145.0818485571
 10
461.20770738
 20
145.5528074672
  0
LWPOLYLINE
  5
20F
330
1FB
100
AcDbEntity
  8
0
  6
CENTERX2
 62
     7
100
AcDbPolyline
 90
        9
 70
   128
 43
0.0
 10
372.7510658401
 20
91.9035264067
 10
373.1157920537
 20
91.9865688678
 10
373.4454465455
 20
92.109092336
 10
373.7273608818
 20
92.2663883044
 10
373.950701256
 20
92.4524119789
 10
374.1068848249
 20
92.660014576
 10
374.1899095434
 20
92.8812180465
 10
374.1965848189
 20
93.1075216675
 10
374.1266541244
 20
93.3302287202
  0
LWPOLYLINE
  5
210
330
1FB
100
AcDbEntity
  8
0
  6
CENTERX2
 62
     7
100
AcDbPolyline
 90
        9
 70
   128
 43
0.0
 10
342.927926609
 20
75.6828870346
 10
343.2858853699
 20
75.5905510214
 10
343.6681703621
 20
75.5403037023
 10
344.0600905837
 20
75.5340760542
 10
344.4465847563
 20
75.572107402
 10
344.8128001214
 20
75.6529362221
 10
345.144663224
 20
75.7734563073
 10
345.4294207476
 20
75.9290361371
 10
345.6561296173
 20
76.1136968641
  0
LWPOLYLINE
  5
211
330
1FB
100
AcDbEntity
  8
0
  6
CENTERX2
 62
     7
100
AcDbPolyline
 90
        9
 70
   128
 43
0.0
 10
413.9039654987
 20
115.884182574
 10
414.2037367605
 20
115.7383046314
 10
414.5470464314
 20
115.6289909104
 10
414.9207013096
 20
115.5604422771
 10
415.3103420438
 20
115.5352930178
 10
415.7009949549
 20
115.5545096047
 10
416.0776474666
 20
115.6173535549
 10
416.42582503
 20
115.72140981
 10
416.732147373
 20
115.8626795454
  0
LWPOLYLINE
  5
212
330
1FB
100
AcDbEntity
  8
0
  6
CENTERX2
 62
     7
100
AcDbPolyline
 90
        9
 70
   128
 43
0.0
 10
444.6225811233
 20
132.0185813022
 10
444.9410578868
 20
132.1505901785
 10
445.208803739
 20
132.3159304271
 10
445.4155293578
 20
132.5082481153
 10
445.553290394
 20
132.7201525827
 10
445.6167927686
 20
132.94350046
 10
445.6035961211
 20
133.169708614
 10
445.5142075913
 20
133.3900839929
 10
445.3520623299
 20
133.5961576948
  0
LINE
  5
213
330
1FB
100
AcDbEntity
  8
0
  6
Continuous
 62
     7
100
AcDbLine
 10
443.0944645988
 20
131.0811782939
 30
0.0
 11
445.0351662879
 21
132.2015215319
 31
0.0
  0
LINE
  5
214
330
1FB
100
AcDbEntity
  8
0
  6
Continuous
 62
     7
100
AcDbLine
 10
445.0351665197
 20
133.8343378893
 30
0.0
 11
437.2569915051
 21
138.3245827477
 31
0.0
  0
LINE
  5
215
330
1FB
100
AcDbEntity
  8
0
  6
Continuous
 62
     7
100
AcDbLine
 10
434.4285641486
 20
138.3245826139
 30
0.0
 11
432.4878624595
 21
137.2042393759
 31
0.0
  0
LINE
  5
216
330
1FB
100
AcDbEntity
  8
0
  6
Continuous
 62
     7
100
AcDbLine
 10
408.0849952224
 20
123.1167639803
 30
0.0
 11
406.1442908992
 21
121.9964192217
 31
0.0
  0
LINE
  5
217
330
1FB
100
AcDbEntity
  8
0
  6
Continuous
 62
     7
100
AcDbLine
 10
406.1442933016
 20
120.3636043849
 30
0.0
 11
413.9224683161
 21
115.8733595266
 31
0.0
  0
LINE
  5
218
330
1FB
100
AcDbEntity
  8
0
  6
Continuous
 62
     7
100
AcDbLine
 10
416.7508845878
 20
115.8733547157
 30
0.0
 11
418.6915889111
 21
116.9936994743
 31
0.0
  0
LINE
  5
219
330
1FB
100
AcDbEntity
  8
0
  6
Continuous
 62
     7
100
AcDbLine
 10
373.6173801497
 20
93.8303408694
 30
0.0
 11
367.960526485
 21
97.0959729792
 31
0.0
  0
LINE
  5
21A
330
1FB
100
AcDbEntity
  8
0
  6
Continuous
 62
     7
100
AcDbLine
 10
365.1320964943
 20
97.0959713247
 30
0.0
 11
361.6828932425
 21
95.1047886709
 31
0.0
  0
LINE
  5
21B
330
1FB
100
AcDbEntity
  8
0
  6
Continuous
 62
     7
100
AcDbLine
 10
340.2970343991
 20
82.7589951482
 30
0.0
 11
336.8478311473
 21
80.7678124945
 31
0.0
  0
LINE
  5
21C
330
1FB
100
AcDbEntity
  8
0
  6
Continuous
 62
     7
100
AcDbLine
 10
336.8478282813
 20
79.1349946164
 30
0.0
 11
342.5046819461
 21
75.8693625067
 31
0.0
  0
LINE
  5
21D
330
1FB
100
AcDbEntity
  8
0
  6
Continuous
 62
     7
100
AcDbLine
 10
345.3331119368
 20
75.8693641612
 30
0.0
 11
348.7823151885
 21
77.8605468149
 31
0.0
  0
LINE
  5
21E
330
1FB
100
AcDbEntity
  8
0
  6
Continuous
 62
     7
100
AcDbLine
 10
370.168174032
 20
90.2063403376
 30
0.0
 11
373.6173772837
 21
92.1975229913
 31
0.0
  0
LINE
  5
21F
330
1FB
100
AcDbEntity
  8
0
  6
Continuous
 62
     7
100
AcDbLine
 10
285.582584043
 20
56.0714636507
 30
0.0
 11
302.5531469391
 21
46.2745662236
 31
0.0
  0
LINE
  5
220
330
1FB
100
AcDbEntity
  8
0
  6
Continuous
 62
     7
100
AcDbLine
 10
458.8237488055
 20
156.0814592954
 30
0.0
 11
285.582584043
 21
56.0714636507
 31
0.0
  0
LINE
  5
221
330
1FB
100
AcDbEntity
  8
0
  6
Continuous
 62
     7
100
AcDbLine
 10
475.7943117015
 20
146.2845618684
 30
0.0
 11
458.8237488055
 21
156.0814592954
 31
0.0
  0
LINE
  5
222
330
1FB
100
AcDbEntity
  8
0
  6
Continuous
 62
     7
100
AcDbLine
 10
302.5531469391
 20
46.2745662236
 30
0.0
 11
475.7943117015
 21
146.2845618684
 31
0.0
  0
LINE
  5
223
330
1FB
100
AcDbEntity
  8
0
  6
CENTERX2
 62
     7
100
AcDbLine
 10
342.2448995325
 20
93.9803107459
 30
0.0
 11
362.8846048158
 21
82.0652625048
 31
0.0
  0
LINE
  5
224
330
1FB
100
AcDbEntity
  8
0
  6
CENTERX2
 62
     7
100
AcDbLine
 10
439.0940092542
 20
119.3031169035
 30
0.0
 11
408.7199686826
 21
136.8376772918
 31
0.0
  0
LINE
  5
225
330
1FB
100
AcDbEntity
  8
0
  6
CENTERX2
 62
     7
100
AcDbLine
 10
467.3090302535
 20
151.1830105819
 30
0.0
 11
294.0678654911
 21
51.1730149371
 31
0.0
  0
LINE
  5
226
330
1FB
100
AcDbEntity
  8
0
  6
CENTERX2
 62
     7
100
AcDbLine
 10
306.088684143
 20
58.1124858341
 30
0.0
 11
299.0176163311
 21
54.030445275
 31
0.0
  0
LINE
  5
227
330
1FB
100
AcDbEntity
  8
0
  6
CENTERX2
 62
     7
100
AcDbLine
 10
306.088684143
 20
54.030445275
 30
0.0
 11
299.0176163311
 21
58.1124858341
 31
0.0
  0
LINE
  5
228
330
1FB
100
AcDbEntity
  8
0
  6
CENTERX2
 62
     7
100
AcDbLine
 10
462.3592827852
 20
148.3255821905
 30
0.0
 11
455.2882149734
 21
144.2435416314
 31
0.0
  0
LINE
  5
229
330
1FB
100
AcDbEntity
  8
0
  6
CENTERX2
 62
     7
100
AcDbLine
 10
462.3592827852
 20
144.2435416314
 30
0.0
 11
455.2882149734
 21
148.3255821905
 31
0.0
  0
LINE
  5
22A
330
1FB
100
AcDbEntity
  8
0
  6
CENTERX2
 62
     7
100
AcDbLine
 10
279.7889726602
 20
69.2129455454
 30
0.0
 11
322.2564492819
 21
44.6969931284
 31
0.0
  0
LINE
  5
22B
330
1FB
100
AcDbEntity
  8
0
  6
Continuous
 62
     7
100
AcDbLine
 10
293.2240015028
 20
73.7031901604
 30
0.0
 11
282.617399785
 21
67.5801293217
 31
0.0
  0
LINE
  5
22C
330
1FB
100
AcDbEntity
  8
0
  6
Continuous
 62
     7
100
AcDbLine
 10
330.034623875
 20
52.4528701907
 30
0.0
 11
319.4280221572
 21
46.329809352
 31
0.0
  0
LINE
  5
22D
330
1FB
100
AcDbEntity
  8
0
  6
Continuous
 62
     7
100
AcDbLine
 10
211.9044357192
 20
21.6214604156
 30
0.0
 11
207.5221851576
 21
21.6214603283
 31
0.0
  0
LINE
  5
22E
330
1FB
100
AcDbEntity
  8
0
  6
Continuous
 62
     7
100
AcDbLine
 10
218.2544372083
 20
17.9556825842
 30
0.0
 11
209.76915586
 21
17.9556825266
 31
0.0
  0
LINE
  5
22F
330
1FB
100
AcDbEntity
  8
0
  6
Continuous
 62
     7
100
AcDbLine
 10
230.9544358758
 20
10.62412941
 30
0.0
 11
230.0500639709
 21
10.6241292809
 31
0.0
  0
LINE
  5
230
330
1FB
100
AcDbEntity
  8
0
  6
Continuous
 62
     7
100
AcDbLine
 10
237.3044361475
 20
6.9583522813
 30
0.0
 11
229.5123011228
 21
6.9583522813
 31
0.0
  0
LINE
  5
231
330
1FB
100
AcDbEntity
  8
0
  6
Continuous
 62
     7
100
AcDbLine
 10
243.6544363195
 20
3.2925752103
 30
0.0
 11
235.1691549712
 21
3.2925751528
 31
0.0
  0
LINE
  5
232
330
1FB
100
AcDbEntity
  8
0
  6
Continuous
 62
     7
100
AcDbLine
 10
221.8755475918
 20
14.7222890307
 30
0.0
 11
222.8654967983
 21
15.2937745432
 31
0.0
  0
LINE
  5
233
330
1FB
100
AcDbEntity
  8
0
  6
Continuous
 62
     7
100
AcDbLine
 10
221.8755475918
 20
14.7222890307
 30
0.0
 11
215.3701642275
 21
14.7222892207
 31
0.0
  0
LINE
  5
234
330
1FB
100
AcDbEntity
  8
0
  6
Continuous
 62
     7
100
AcDbLine
 10
215.3701642275
 20
14.7222892207
 30
0.0
 11
205.47066979
 21
20.4371457154
 31
0.0
  0
LINE
  5
235
330
1FB
100
AcDbEntity
  8
0
  6
Continuous
 62
     7
100
AcDbLine
 10
209.713310514
 20
22.8863700722
 30
0.0
 11
205.47066979
 21
20.4371457154
 31
0.0
  0
LINE
  5
236
330
1FB
100
AcDbEntity
  8
0
  6
Continuous
 62
     7
100
AcDbLine
 10
222.8654967983
 20
15.2937745432
 30
0.0
 11
209.713310514
 21
22.8863700722
 31
0.0
  0
LINE
  5
237
330
1FB
100
AcDbEntity
  8
0
  6
Continuous
 62
     7
100
AcDbLine
 10
230.5022500351
 20
10.8851707393
 30
0.0
 11
229.5123008286
 21
10.3136852268
 31
0.0
  0
LINE
  5
238
330
1FB
100
AcDbEntity
  8
0
  6
Continuous
 62
     7
100
AcDbLine
 10
221.8755475918
 20
14.7222890307
 30
0.0
 11
229.5123008286
 21
10.3136852268
 31
0.0
  0
LINE
  5
239
330
1FB
100
AcDbEntity
  8
0
  6
Continuous
 62
     7
100
AcDbLine
 10
222.8654967983
 20
15.2937745432
 30
0.0
 11
230.5022500351
 21
10.8851707393
 31
0.0
  0
LINE
  5
23A
330
1FB
100
AcDbEntity
  8
0
  6
Continuous
 62
     7
100
AcDbLine
 10
229.5123011579
 20
6.5582073482
 30
0.0
 11
229.5123008286
 21
10.3136852268
 31
0.0
  0
LINE
  5
23B
330
1FB
100
AcDbEntity
  8
0
  6
Continuous
 62
     7
100
AcDbLine
 10
229.5123011579
 20
6.5582073482
 30
0.0
 11
215.3701642275
 21
14.7222892207
 31
0.0
  0
LINE
  5
23C
330
1FB
100
AcDbEntity
  8
0
  6
Continuous
 62
     7
100
AcDbLine
 10
243.6544363195
 20
3.2925752103
 30
0.0
 11
230.5022500351
 21
10.8851707393
 31
0.0
  0
LINE
  5
23D
330
1FB
100
AcDbEntity
  8
0
  6
Continuous
 62
     7
100
AcDbLine
 10
239.4117955954
 20
0.8433508536
 30
0.0
 11
229.5123011579
 21
6.5582073482
 31
0.0
  0
LINE
  5
23E
330
1FB
100
AcDbEntity
  8
0
  6
Continuous
 62
     7
100
AcDbLine
 10
239.4117955954
 20
0.8433508536
 30
0.0
 11
243.6544363195
 21
3.2925752103
 31
0.0
  0
LINE
  5
23F
330
1FB
100
AcDbEntity
  8
0
  6
Continuous
 62
     7
100
AcDbLine
 10
282.617399785
 20
67.5801293217
 30
0.0
 11
289.3349142062
 21
70.2334556852
 31
0.0
  0
LINE
  5
240
330
1FB
100
AcDbEntity
  8
0
  6
Continuous
 62
     7
100
AcDbLine
 10
289.3349142062
 20
70.2334556852
 30
0.0
 11
287.2135938627
 21
71.4580678529
 31
0.0
  0
LINE
  5
241
330
1FB
100
AcDbEntity
  8
0
  6
Continuous
 62
     7
100
AcDbLine
 10
287.2135938627
 20
71.4580678529
 30
0.0
 11
282.617399785
 21
67.5801293217
 31
0.0
  0
LINE
  5
242
330
1FB
100
AcDbEntity
  8
0
  6
Continuous
 62
     7
100
AcDbLine
 10
319.4280221572
 20
46.329809352
 30
0.0
 11
326.1455365785
 21
48.9831357155
 31
0.0
  0
LINE
  5
243
330
1FB
100
AcDbEntity
  8
0
  6
Continuous
 62
     7
100
AcDbLine
 10
326.1455365785
 20
48.9831357155
 30
0.0
 11
324.0242162349
 21
50.2077478832
 31
0.0
  0
LINE
  5
244
330
1FB
100
AcDbEntity
  8
0
  6
Continuous
 62
     7
100
AcDbLine
 10
324.0242162349
 20
50.2077478832
 30
0.0
 11
319.4280221572
 21
46.329809352
 31
0.0
  0
LWPOLYLINE
  5
245
330
1FB
100
AcDbEntity
  8
0
  6
Continuous
 62
     7
100
AcDbPolyline
 90
       61
 70
   128
 43
0.0
 10
291.5696184015
 20
78.3844351907
 10
291.2476121742
 20
77.2200162805
 10
291.2476121742
 20
77.2200162805
 10
291.1735060901
 20
77.1616791917
 10
291.1735060901
 20
77.1616791917
 10
290.0134090272
 20
76.4919694125
 10
290.0134090272
 20
76.4919694125
 10
289.9244817262
 20
76.4655232656
 10
289.9244817262
 20
76.4655232656
 10
288.1957888904
 20
76.3107355233
 10
288.1957888904
 20
76.3107355233
 10
287.9101436205
 20
75.3026706292
 10
287.9101436205
 20
75.3026706292
 10
287.8643325867
 20
75.251333991
 10
287.8643325867
 20
75.251333991
 10
286.6745930901
 20
74.5645119991
 10
286.6745930901
 20
74.5645119991
 10
286.5762341057
 20
74.5326210572
 10
286.5762341057
 20
74.5326210572
 10
284.5430326331
 20
74.3544984795
 10
284.5430326331
 20
74.3544984795
 10
284.4635370156
 20
74.3895007327
 10
284.4635370156
 20
74.3895007327
 10
281.9735725879
 20
75.8269266004
 10
281.9735725879
 20
75.8269266004
 10
281.9587513711
 20
75.865040165
 10
281.9681830545
 20
75.9031537297
 10
281.9991728715
 20
75.9412672944
 10
282.0544155888
 20
75.979380859
 10
282.0544155888
 20
75.979380859
 10
282.1379533564
 20
76.0151609402
 10
282.2241858907
 20
76.0276061858
 10
282.2713443079
 20
76.0237170465
 10
282.3211974918
 20
76.0120496288
 10
282.3737454424
 20
75.9910482768
 10
282.4289881596
 20
75.9622686463
 10
282.4289881596
 20
75.9622686463
 10
283.002973466
 20
75.630913982
 10
283.002973466
 20
75.630913982
 10
289.3841810035
 20
79.3147066817
 10
289.3841810035
 20
79.3147066817
 10
288.7077945627
 20
79.7051762626
 10
288.7077945627
 20
79.7051762626
 10
288.6875838125
 20
79.7386228602
 10
288.6889311958
 20
79.7720694578
 10
288.7091419461
 20
79.8086273668
 10
288.7509108298
 20
79.8451852757
 10
288.7509108298
 20
79.8451852757
 10
288.8425328975
 20
79.8887436354
 10
288.9287654318
 20
79.9120784709
 10
288.9732290823
 20
79.9144119544
 10
289.0190401162
 20
79.9081893316
 10
289.0661985334
 20
79.8918549468
 10
289.1147043339
 20
79.8685201112
 10
289.1147043339
 20
79.8685201112
 10
289.1915051847
 20
79.8241839238
 10
289.1915051847
 20
79.8241839238
 10
291.5157414606
 20
78.4824308818
 10
291.5157414606
 20
78.4824308818
 10
291.5669420278
 20
78.4357612107
 10
291.5696367945
 20
78.3844245726
  0
LWPOLYLINE
  5
246
330
1FB
100
AcDbEntity
  8
0
  6
Continuous
 62
     7
100
AcDbPolyline
 90
       12
 70
   128
 43
0.0
 10
290.8325978185
 20
77.2635863501
 10
291.1276950562
 20
78.3081974433
 10
291.1276950562
 20
78.3081974433
 10
289.6428786064
 20
79.1653637344
 10
289.6428786064
 20
79.1653637344
 10
286.5385073719
 20
77.373248367
 10
286.5385073719
 20
77.373248367
 10
288.016586905
 20
76.5199712151
 10
288.016586905
 20
76.5199712151
 10
289.8328596585
 20
76.6864263751
 10
289.8328596585
 20
76.6864263751
 10
290.832618103
 20
77.2635746401
  0
LWPOLYLINE
  5
247
330
1FB
100
AcDbEntity
  8
0
  6
Continuous
 62
     7
100
AcDbPolyline
 90
       12
 70
   128
 43
0.0
 10
287.4358443974
 20
75.3026823391
 10
287.6716567679
 20
76.3208472854
 10
287.6716567679
 20
76.3208472854
 10
286.1935772348
 20
77.1741244373
 10
286.1935772348
 20
77.1741244373
 10
283.2616710689
 20
75.4815710348
 10
283.2616710689
 20
75.4815710348
 10
284.7464875187
 20
74.6244047436
 10
284.7464875187
 20
74.6244047436
 10
286.5034754049
 20
74.7644137566
 10
286.5034754049
 20
74.7644137566
 10
287.4358646819
 20
75.3026706292
  0
LWPOLYLINE
  5
248
330
1FB
100
AcDbEntity
  8
0
  6
Continuous
 62
     7
100
AcDbPolyline
 90
       61
 70
   128
 43
0.0
 10
341.3031984188
 20
51.3710295457
 10
340.9812379345
 20
50.2065842287
 10
340.9812379345
 20
50.2065842287
 10
340.9071318503
 20
50.1482471399
 10
340.9071318503
 20
50.1482471399
 10
339.7470347874
 20
49.4785373607
 10
339.7470347874
 20
49.4785373607
 10
339.6581074864
 20
49.4520912137
 10
339.6581074864
 20
49.4520912137
 10
337.9294146506
 20
49.2973034715
 10
337.9294146506
 20
49.2973034715
 10
337.6437693807
 20
48.2892385773
 10
337.6437693807
 20
48.2892385773
 10
337.5979583469
 20
48.2379019392
 10
337.5979583469
 20
48.2379019392
 10
336.4082188503
 20
47.5510799473
 10
336.4082188503
 20
47.5510799473
 10
336.3098598659
 20
47.5191890054
 10
336.3098598659
 20
47.5191890054
 10
334.2766583933
 20
47.3410664276
 10
334.2766583933
 20
47.3410664276
 10
334.1971627758
 20
47.3760686809
 10
334.1971627758
 20
47.3760686809
 10
331.7071983481
 20
48.8134945485
 10
331.7071983481
 20
48.8134945485
 10
331.6923771313
 20
48.8516081132
 10
331.7018088147
 20
48.8897216779
 10
331.7327986318
 20
48.9278352425
 10
331.788041349
 20
48.9659488072
 10
331.788041349
 20
48.9659488072
 10
331.8715791166
 20
49.0017288883
 10
331.9578116509
 20
49.0141741339
 10
332.0049700681
 20
49.0102849947
 10
332.054823252
 20
48.9986175769
 10
332.1073712026
 20
48.977616225
 10
332.1626139199
 20
48.9488365945
 10
332.1626139199
 20
48.9488365945
 10
332.7365992262
 20
48.6174819302
 10
332.7365992262
 20
48.6174819302
 10
339.1178067638
 20
52.3012746299
 10
339.1178067638
 20
52.3012746299
 10
338.4414203229
 20
52.6917442108
 10
338.4414203229
 20
52.6917442108
 10
338.4212095727
 20
52.7251908084
 10
338.4225569561
 20
52.758637406
 10
338.4427677063
 20
52.7951953149
 10
338.4845365901
 20
52.8317532239
 10
338.4845365901
 20
52.8317532239
 10
338.5761586578
 20
52.8753115835
 10
338.6623911921
 20
52.898646419
 10
338.7068548425
 20
52.9009799026
 10
338.7526658764
 20
52.8947572798
 10
338.7998242936
 20
52.8784228949
 10
338.8483300941
 20
52.8550880594
 10
338.8483300941
 20
52.8550880594
 10
338.925130945
 20
52.8107518719
 10
338.925130945
 20
52.8107518719
 10
341.2493672208
 20
51.4689988299
 10
341.2493672208
 20
51.4689988299
 10
341.300567788
 20
51.4223291589
 10
341.3032625547
 20
51.3709925208
  0
LWPOLYLINE
  5
249
330
1FB
100
AcDbEntity
  8
0
  6
Continuous
 62
     7
100
AcDbPolyline
 90
       12
 70
   128
 43
0.0
 10
340.5661778358
 20
50.2501807051
 10
340.8613208165
 20
51.2947653914
 10
340.8613208165
 20
51.2947653914
 10
339.3765043666
 20
52.1519316826
 10
339.3765043666
 20
52.1519316826
 10
336.2721331322
 20
50.3598163152
 10
336.2721331322
 20
50.3598163152
 10
337.7502126653
 20
49.5065391633
 10
337.7502126653
 20
49.5065391633
 10
339.5664854188
 20
49.6729943233
 10
339.5664854188
 20
49.6729943233
 10
340.5662438632
 20
50.2501425883
  0
LWPOLYLINE
  5
24A
330
1FB
100
AcDbEntity
  8
0
  6
Continuous
 62
     7
100
AcDbPolyline
 90
       12
 70
   128
 43
0.0
 10
337.1694244147
 20
48.2892766941
 10
337.4052825281
 20
49.3074152336
 10
337.4052825281
 20
49.3074152336
 10
335.927202995
 20
50.1606923855
 10
335.927202995
 20
50.1606923855
 10
332.9952968291
 20
48.4681389829
 10
332.9952968291
 20
48.4681389829
 10
334.4801132789
 20
47.6109726917
 10
334.4801132789
 20
47.6109726917
 10
336.2371011651
 20
47.7509817048
 10
336.2371011651
 20
47.7509817048
 10
337.1694904421
 20
48.2892385773
  0
LWPOLYLINE
  5
24B
330
1FB
100
AcDbEntity
  8
0
  6
Continuous
 62
     7
100
AcDbPolyline
 90
       61
 70
   128
 43
0.0
 10
226.508413877
 20
37.9265255696
 10
226.2830060915
 20
37.1114343106
 10
226.2830060915
 20
37.1114343106
 10
226.2311318326
 20
37.0705983484
 10
226.2311318326
 20
37.0705983484
 10
225.4190638886
 20
36.601801503
 10
225.4190638886
 20
36.601801503
 10
225.3568147779
 20
36.5832892001
 10
225.3568147779
 20
36.5832892001
 10
224.1467297928
 20
36.4749377806
 10
224.1467297928
 20
36.4749377806
 10
223.9467781039
 20
35.7692923546
 10
223.9467781039
 20
35.7692923546
 10
223.9147103802
 20
35.7333567079
 10
223.9147103802
 20
35.7333567079
 10
223.0818927326
 20
35.2525813136
 10
223.0818927326
 20
35.2525813136
 10
223.0130414435
 20
35.2302576543
 10
223.0130414435
 20
35.2302576543
 10
221.5898004127
 20
35.1055718499
 10
221.5898004127
 20
35.1055718499
 10
221.5341534804
 20
35.1300734271
 10
221.5341534804
 20
35.1300734271
 10
219.7911783811
 20
36.1362715345
 10
219.7911783811
 20
36.1362715345
 10
219.7808035293
 20
36.1629510297
 10
219.7874057077
 20
36.189630525
 10
219.8090985796
 20
36.2163100203
 10
219.8477684817
 20
36.2429895156
 10
219.8477684817
 20
36.2429895156
 10
219.906244919
 20
36.2680355723
 10
219.966607693
 20
36.2767472443
 10
219.999618585
 20
36.2740248468
 10
220.0345158138
 20
36.2658576544
 10
220.0712993792
 20
36.251156708
 10
220.1099692813
 20
36.2310109667
 10
220.1099692813
 20
36.2310109667
 10
220.5117589957
 20
35.9990627017
 10
220.5117589957
 20
35.9990627017
 10
224.978604272
 20
38.5777175914
 10
224.978604272
 20
38.5777175914
 10
224.5051337634
 20
38.8510462981
 10
224.5051337634
 20
38.8510462981
 10
224.4909862383
 20
38.8744589164
 10
224.4919294066
 20
38.8978715347
 10
224.5060769318
 20
38.923462071
 10
224.5353151504
 20
38.9490526072
 10
224.5353151504
 20
38.9490526072
 10
224.5994505978
 20
38.979543459
 10
224.6598133718
 20
38.9958778438
 10
224.6909379271
 20
38.9975112823
 10
224.7230056508
 20
38.9931554464
 10
224.7560165429
 20
38.981721377
 10
224.7899706032
 20
38.9653869921
 10
224.7899706032
 20
38.9653869921
 10
224.8437311988
 20
38.9343516609
 10
224.8437311988
 20
38.9343516609
 10
226.4706965919
 20
37.9951245315
 10
226.4706965919
 20
37.9951245315
 10
226.506536989
 20
37.9624557617
 10
226.5084233257
 20
37.926520115
  0
LWPOLYLINE
  5
24C
330
1FB
100
AcDbEntity
  8
0
  6
Continuous
 62
     7
100
AcDbPolyline
 90
       12
 70
   128
 43
0.0
 10
225.9924994689
 20
37.1419313812
 10
226.1990641089
 20
37.8731611245
 10
226.1990641089
 20
37.8731611245
 10
225.159692594
 20
38.4731775283
 10
225.159692594
 20
38.4731775283
 10
222.9866327299
 20
37.2186967711
 10
222.9866327299
 20
37.2186967711
 10
224.021288403
 20
36.6214027648
 10
224.021288403
 20
36.6214027648
 10
225.2926793305
 20
36.7379213768
 10
225.2926793305
 20
36.7379213768
 10
225.9925102416
 20
37.1419251623
  0
LWPOLYLINE
  5
24D
330
1FB
100
AcDbEntity
  8
0
  6
Continuous
 62
     7
100
AcDbPolyline
 90
       12
 70
   128
 43
0.0
 10
223.6147720742
 20
35.7692985736
 10
223.779837307
 20
36.482016014
 10
223.779837307
 20
36.482016014
 10
222.7451816339
 20
37.0793100203
 10
222.7451816339
 20
37.0793100203
 10
220.6928473177
 20
35.8945226386
 10
220.6928473177
 20
35.8945226386
 10
221.7322188326
 20
35.2945062347
 10
221.7322188326
 20
35.2945062347
 10
222.9621103529
 20
35.3925125439
 10
222.9621103529
 20
35.3925125439
 10
223.6147828469
 20
35.7692923546
  0
LWPOLYLINE
  5
24E
330
1FB
100
AcDbEntity
  8
0
  6
Continuous
 62
     7
100
AcDbPolyline
 90
       29
 70
   128
 43
0.0
 10
228.0457794781
 20
34.3678068952
 10
228.0542762412
 20
34.3258772126
 10
228.0269243592
 20
34.2795964555
 10
228.0269243592
 20
34.2795964555
 10
228.0033451506
 20
34.2616286321
 10
227.9665615852
 20
34.2393049728
 10
227.9665615852
 20
34.2393049728
 10
227.9231758414
 20
34.218614752
 10
227.8656425724
 20
34.1973800517
 10
227.8326316804
 20
34.1903018182
 10
227.7967912833
 20
34.1903018182
 10
227.7571782129
 20
34.1968355722
 10
227.7147356374
 20
34.2104475596
 10
227.7147356374
 20
34.2104475596
 10
225.4775403259
 20
35.5019529224
 10
225.4775403259
 20
35.5019529224
 10
225.4681086424
 20
35.5444223231
 10
225.491687851
 20
35.5928809982
 10
225.491687851
 20
35.5928809982
 10
225.5171533963
 20
35.6119377805
 10
225.5595959718
 20
35.6375283168
 10
225.5595959718
 20
35.6375283168
 10
225.6359926076
 20
35.671830525
 10
225.7086165701
 20
35.6843535534
 10
225.7086165701
 20
35.6843535534
 10
225.7425706305
 20
35.6810866764
 10
225.7887858793
 20
35.670741566
 10
225.7887858793
 20
35.670741566
 10
228.0457877261
 20
34.3678021337
  0
LWPOLYLINE
  5
24F
330
1FB
100
AcDbEntity
  8
0
  6
Continuous
 62
     7
100
AcDbPolyline
 90
       61
 70
   128
 43
0.0
 10
233.2690212593
 20
34.0237100016
 10
233.0436367799
 20
33.2086052882
 10
233.0436367799
 20
33.2086052882
 10
232.991762521
 20
33.1677693261
 10
232.991762521
 20
33.1677693261
 10
232.179694577
 20
32.6989724806
 10
232.179694577
 20
32.6989724806
 10
232.1174454663
 20
32.6804601778
 10
232.1174454663
 20
32.6804601778
 10
230.9073604812
 20
32.5721087582
 10
230.9073604812
 20
32.5721087582
 10
230.7074087923
 20
31.8664633323
 10
230.7074087923
 20
31.8664633323
 10
230.6753410686
 20
31.8305276856
 10
230.6753410686
 20
31.8305276856
 10
229.842523421
 20
31.3497522912
 10
229.842523421
 20
31.3497522912
 10
229.7736721319
 20
31.3274286319
 10
229.7736721319
 20
31.3274286319
 10
228.3504311011
 20
31.2027428275
 10
228.3504311011
 20
31.2027428275
 10
228.2947841688
 20
31.2272444048
 10
228.2947841688
 20
31.2272444048
 10
226.5518090695
 20
32.2334425121
 10
226.5518090695
 20
32.2334425121
 10
226.5414342177
 20
32.2601220074
 10
226.5480363961
 20
32.2868015026
 10
226.569729268
 20
32.3134809979
 10
226.6083991701
 20
32.3401604932
 10
226.6083991701
 20
32.3401604932
 10
226.6668756074
 20
32.36520655
 10
226.7272383814
 20
32.3739182219
 10
226.7602492735
 20
32.3711958244
 10
226.7951465022
 20
32.363028632
 10
226.8319300676
 20
32.3483276856
 10
226.8705999697
 20
32.3281819443
 10
226.8705999697
 20
32.3281819443
 10
227.2723896841
 20
32.0962336793
 10
227.2723896841
 20
32.0962336793
 10
231.7392349604
 20
34.6748885691
 10
231.7392349604
 20
34.6748885691
 10
231.2657644518
 20
34.9482172757
 10
231.2657644518
 20
34.9482172757
 10
231.2516169267
 20
34.971629894
 10
231.252560095
 20
34.9950425123
 10
231.2667076202
 20
35.0206330486
 10
231.2959458388
 20
35.0462235849
 10
231.2959458388
 20
35.0462235849
 10
231.3600812862
 20
35.0767144366
 10
231.4204440602
 20
35.0930488215
 10
231.4515686156
 20
35.0946822599
 10
231.4836363392
 20
35.090326424
 10
231.5166472313
 20
35.0788923546
 10
231.5506012917
 20
35.0625579697
 10
231.5506012917
 20
35.0625579697
 10
231.6043618873
 20
35.0315226385
 10
231.6043618873
 20
35.0315226385
 10
233.2313272803
 20
34.0922955091
 10
233.2313272803
 20
34.0922955091
 10
233.2671676774
 20
34.0596267394
 10
233.2690540141
 20
34.0236910927
  0
LWPOLYLINE
  5
250
330
1FB
100
AcDbEntity
  8
0
  6
Continuous
 62
     7
100
AcDbPolyline
 90
       12
 70
   128
 43
0.0
 10
232.7531068512
 20
33.2391158132
 10
232.9596947973
 20
33.9703321021
 10
232.9596947973
 20
33.9703321021
 10
231.9203232824
 20
34.570348506
 10
231.9203232824
 20
34.570348506
 10
229.7472634183
 20
33.3158677488
 10
229.7472634183
 20
33.3158677488
 10
230.7819190915
 20
32.7185737424
 10
230.7819190915
 20
32.7185737424
 10
232.0533100189
 20
32.8350923544
 10
232.0533100189
 20
32.8350923544
 10
232.75314093
 20
33.2390961399
  0
LWPOLYLINE
  5
251
330
1FB
100
AcDbEntity
  8
0
  6
Continuous
 62
     7
100
AcDbPolyline
 90
       12
 70
   128
 43
0.0
 10
230.3753794564
 20
31.8664830056
 10
230.5404679954
 20
32.5791869916
 10
230.5404679954
 20
32.5791869916
 10
229.5058123223
 20
33.176480998
 10
229.5058123223
 20
33.176480998
 10
227.4534780062
 20
31.9916936162
 10
227.4534780062
 20
31.9916936162
 10
228.492849521
 20
31.3916772124
 10
228.492849521
 20
31.3916772124
 10
229.7227410414
 20
31.4896835215
 10
229.7227410414
 20
31.4896835215
 10
230.3754135353
 20
31.8664633323
  0
POINT
  5
252
330
1FB
100
AcDbEntity
  8
0
  6
Continuous
 62
     7
100
AcDbPoint
 10
435.8427779427
 20
139.1409908595
 30
0.0
  0
POINT
  5
253
330
1FB
100
AcDbEntity
  8
0
  6
Continuous
 62
     7
100
AcDbPoint
 10
404.7300797392
 20
121.1800124968
 30
0.0
  0
POINT
  5
254
330
1FB
100
AcDbEntity
  8
0
  6
Continuous
 62
     7
100
AcDbPoint
 10
421.347088886
 20
129.5481956674
 30
0.0
  0
POINT
  5
255
330
1FB
100
AcDbEntity
  8
0
  6
Continuous
 62
     7
100
AcDbPoint
 10
429.8323696755
 20
124.6497473341
 30
0.0
  0
POINT
  5
256
330
1FB
100
AcDbEntity
  8
0
  6
Continuous
 62
     7
100
AcDbPoint
 10
415.3366818785
 20
115.0569514148
 30
0.0
  0
POINT
  5
257
330
1FB
100
AcDbEntity
  8
0
  6
Continuous
 62
     7
100
AcDbPoint
 10
351.8031376205
 20
88.4624573485
 30
0.0
  0
POINT
  5
258
330
1FB
100
AcDbEntity
  8
0
  6
Continuous
 62
     7
100
AcDbPoint
 10
358.662073398
 20
84.5028780062
 30
0.0
  0
POINT
  5
259
330
1FB
100
AcDbEntity
  8
0
  6
Continuous
 62
     7
100
AcDbPoint
 10
222.8654967983
 20
15.2937745432
 30
0.0
  0
POINT
  5
25A
330
1FB
100
AcDbEntity
  8
0
  6
Continuous
 62
     7
100
AcDbPoint
 10
230.5022500351
 20
10.8851707393
 30
0.0
  0
POINT
  5
25B
330
1FB
100
AcDbEntity
  8
0
  6
Continuous
 62
     7
100
AcDbPoint
 10
229.5123011579
 20
6.5582073482
 30
0.0
  0
VIEWPORT
  5
32C
330
1FB
100
AcDbEntity
  8
0
100
AcDbViewport
 10
0.0
 20
0.0
 30
0.0
 40
205.6
 41
156.0
 68
     1
 69
     1
 12
143.0047148344
 22
342.9703857442
 13
0.0
 23
0.0
 14
10.0
 24
10.0
 15
10.0
 25
10.0
 16
0.0
 26
0.0
 36
1.0
 17
0.0
 27
0.0
 37
0.0
 42
50.0
 43
0.0
 44
0.0
 45
352.2012672449
 50
0.0
 51
0.0
 72
   100
 90
   557152
  1

281
     0
 71
     1
 74
     0
110
0.0
120
0.0
130
0.0
111
1.0
121
0.0
131
0.0
112
0.0
122
1.0
132
0.0
 79
     0
146
0.0
170
     0
 61
     5
348
2F
292
     1
282
     1
141
0.0
142
0.0
 63
   256
361
32D
  0
ENDBLK
  5
1FE
330
1FB
100
AcDbEntity
  8
0
100
AcDbBlockEnd
  0
BLOCK
  5
25E
330
25C
100
AcDbEntity
  8
0
100
AcDbBlockBegin
  2
*Paper_Space7
 70
     0
 10
0.0
 20
0.0
 30
0.0
  3
*Paper_Space7
  1

  0
LWPOLYLINE
  5
260
330
25C
100
AcDbEntity
  8
0
  6
Continuous
 62
     7
100
AcDbPolyline
 90
        9
 70
   128
 43
0.0
 10
356.2553728826
 20
179.136144997
 10
353.6758142569
 20
177.3416230412
 10
351.2496941003
 20
175.4912044766
 10
348.9815720941
 20
173.5883670036
 10
346.8757109759
 20
171.6366868393
 10
344.9360685281
 20
169.6398319963
 10
343.1662901394
 20
167.6015553894
 10
341.5697019542
 20
165.5256877815
 10
340.1493046206
 20
163.4161305849
  0
LWPOLYLINE
  5
261
330
25C
100
AcDbEntity
  8
0
  6
Continuous
 62
     7
100
AcDbPolyline
 90
        9
 70
   128
 43
0.0
 10
357.5362494824
 20
180.3863198255
 10
357.6843572952
 20
180.5732877607
 10
357.7587980305
 20
180.771544875
 10
357.7567109736
 20
180.9734722609
 10
357.6781763289
 20
181.1713099646
 10
357.5262121378
 20
181.3574551966
 10
357.3066582971
 20
181.5247545023
 10
357.027952135
 20
181.6667786651
 10
356.7008041699
 20
181.7780697777
  0
LWPOLYLINE
  5
262
330
25C
100
AcDbEntity
  8
0
  6
Continuous
 62
     7
100
AcDbPolyline
 90
        9
 70
   128
 43
0.0
 10
346.9722043043
 20
184.4220947626
 10
346.6091865906
 20
184.4983759325
 10
346.2242497554
 20
184.5367157406
 10
345.8321867084
 20
184.5356408092
 10
345.4480642158
 20
184.4951924474
 10
345.0866438927
 20
184.4169250633
 10
344.7618149222
 20
184.3038464293
 10
344.4860603021
 20
184.1603020947
 10
344.2699771301
 20
183.991808389
  0
LWPOLYLINE
  5
263
330
25C
100
AcDbEntity
  8
0
  6
Continuous
 62
     7
100
AcDbPolyline
 90
        9
 70
   128
 43
0.0
 10
326.8830385899
 20
167.0216233526
 10
329.4625961107
 20
168.8161449029
 10
331.8887152438
 20
170.6665630215
 10
334.1568363127
 20
172.5694000111
 10
336.2626965841
 20
174.5210796576
 10
338.2023382796
 20
176.5179339514
 10
339.9721160138
 20
178.5562099811
 10
341.5687036459
 20
180.6320769871
 10
342.9891005303
 20
182.7416335605
  0
LWPOLYLINE
  5
264
330
25C
100
AcDbEntity
  8
0
  6
Continuous
 62
     7
100
AcDbPolyline
 90
        9
 70
   128
 43
0.0
 10
325.6021602515
 20
165.7714468272
 10
325.4540531743
 20
165.5844789831
 10
325.379613056
 20
165.3862220391
 10
325.3817005824
 20
165.184294882
 10
325.4602355313
 20
164.9864574425
 10
325.612199855
 20
164.800312486
 10
325.8317536624
 20
164.6330134434
 10
326.1104596421
 20
164.4909895092
 10
326.4376073026
 20
164.3796985718
  0
LWPOLYLINE
  5
265
330
25C
100
AcDbEntity
  8
0
  6
Continuous
 62
     7
100
AcDbPolyline
 90
        9
 70
   128
 43
0.0
 10
336.1662071683
 20
161.735673587
 10
336.5292231326
 20
161.6593928533
 10
336.9141580157
 20
161.6210531079
 10
337.3062191263
 20
161.6221277118
 10
337.6903399188
 20
161.6625753688
 10
338.0517589866
 20
161.7408417131
 10
338.3765873295
 20
161.8539190413
 10
338.6523420948
 20
161.9974618965
 10
338.8684262822
 20
162.1659540596
  0
LWPOLYLINE
  5
266
330
25C
100
AcDbEntity
  8
0
  6
Continuous
 62
     7
100
AcDbPolyline
 90
        9
 70
   128
 43
0.0
 10
301.8626399072
 20
138.7383995694
 10
301.4996217472
 20
138.8146808077
 10
301.114684431
 20
138.8530205919
 10
300.7226209219
 20
138.8519455417
 10
300.3384980393
 20
138.8114969709
 10
299.9770774481
 20
138.7332292993
 10
299.6522483748
 20
138.6201503174
 10
299.3764938506
 20
138.4766055982
 10
299.1604109944
 20
138.3081114989
  0
LWPOLYLINE
  5
267
330
25C
100
AcDbEntity
  8
0
  6
Continuous
 62
     7
100
AcDbPolyline
 90
        9
 70
   128
 43
0.0
 10
282.7690974446
 20
122.3096869754
 10
284.9690290468
 20
123.9022466636
 10
287.0500563123
 20
125.5366494189
 10
289.0091823732
 20
127.2105415531
 10
290.8435859101
 20
128.9215125097
 10
292.5506252156
 20
130.6670983353
 10
294.1278419983
 20
132.444785228
 10
295.5729649229
 20
134.2520131574
 10
296.8839128814
 20
136.0861795513
  0
LWPOLYLINE
  5
268
330
25C
100
AcDbEntity
  8
0
  6
Continuous
 62
     7
100
AcDbPolyline
 90
        9
 70
   128
 43
0.0
 10
280.4925993316
 20
120.0877550278
 10
280.3444906365
 20
119.9007870081
 10
280.270049177
 20
119.7025297115
 10
280.2721357043
 20
119.5006020743
 10
280.3506700338
 20
119.3027640824
 10
280.5026341277
 20
119.1166185583
 10
280.722188076
 20
118.9493189885
 10
281.000894522
 20
118.8072946183
 10
281.3280429055
 20
118.6960033786
  0
LWPOLYLINE
  5
269
330
25C
100
AcDbEntity
  8
0
  6
Continuous
 62
     7
100
AcDbPolyline
 90
        9
 70
   128
 43
0.0
 10
288.4033871476
 20
116.7730764199
 10
288.7664053113
 20
116.6967952036
 10
289.1513426207
 20
116.6584554355
 10
289.5434061172
 20
116.6595304946
 10
289.9275289863
 20
116.6999790671
 10
290.288949568
 20
116.7782467334
 10
290.6137786407
 20
116.8913257042
 10
290.8895331769
 20
117.0348704082
 10
291.1056160603
 20
117.2033644904
  0
LWPOLYLINE
  5
26A
330
25C
100
AcDbEntity
  8
0
  6
Continuous
 62
     7
100
AcDbPolyline
 90
        9
 70
   128
 43
0.0
 10
307.4969296101
 20
133.2017890139
 10
305.2969980079
 20
131.6092293257
 10
303.2159707424
 20
129.9748265704
 10
301.2568446816
 20
128.3009344362
 10
299.4224411447
 20
126.5899634796
 10
297.7154018392
 20
124.844377654
 10
296.1381850565
 20
123.0666907613
 10
294.6930621319
 20
121.2594628319
 10
293.3821141733
 20
119.425296438
  0
LWPOLYLINE
  5
26B
330
25C
100
AcDbEntity
  8
0
  6
Continuous
 62
     7
100
AcDbPolyline
 90
        9
 70
   128
 43
0.0
 10
309.7734277231
 20
135.4237209615
 10
309.9215362648
 20
135.6106889882
 10
309.9959776123
 20
135.8089462722
 10
309.9938910222
 20
136.0108738859
 10
309.9153566811
 20
136.2087118528
 10
309.7633926242
 20
136.3948573596
 10
309.5438387535
 20
136.5621569282
 10
309.2651324138
 20
136.7041813205
 10
308.9379841492
 20
136.8154726107
  0
LWPOLYLINE
  5
26C
330
25C
100
AcDbEntity
  8
0
  6
Continuous
 62
     7
100
AcDbPolyline
 90
       17
 70
   128
 43
0.0
 10
265.2753171417
 20
93.3368916366
 10
265.2606759148
 20
94.3416527789
 10
264.5005918693
 20
95.2670452981
 10
263.1107809111
 20
95.9721865719
 10
261.3028291598
 20
96.3497252336
 10
259.3519808805
 20
96.3421844443
 10
257.5552350392
 20
95.9507122208
 10
256.1861299027
 20
95.2349066604
 10
255.453099317
 20
94.3037426709
 10
255.4677405439
 20
93.2989815286
 10
256.2278245894
 20
92.3735890094
 10
257.6176355476
 20
91.6684477356
 10
259.4255872989
 20
91.2909090739
 10
261.3764355782
 20
91.2984498632
 10
263.1731814195
 20
91.6899220867
 10
264.542286556
 20
92.4057276471
 10
265.2753171417
 20
93.3368916366
  0
LWPOLYLINE
  5
26D
330
25C
100
AcDbEntity
  8
0
  6
Continuous
 62
     7
100
AcDbPolyline
 90
       17
 70
   128
 43
0.0
 10
368.4149980952
 20
194.0043821404
 10
368.4003568683
 20
195.0091432826
 10
367.6402728229
 20
195.9345358018
 10
366.2504618647
 20
196.6396770757
 10
364.4425101134
 20
197.0172157374
 10
362.4916618341
 20
197.009674948
 10
360.6949159927
 20
196.6182027245
 10
359.3258108562
 20
195.9023971641
 10
358.5927802706
 20
194.9712331746
 10
358.6074214975
 20
193.9664720324
 10
359.3675055429
 20
193.0410795132
 10
360.7573165011
 20
192.3359382393
 10
362.5652682524
 20
191.9583995776
 10
364.5161165317
 20
191.9659403669
 10
366.312862373
 20
192.3574125905
 10
367.6819675096
 20
193.0732181509
 10
368.4149980952
 20
194.0043821404
  0
LWPOLYLINE
  5
26E
330
25C
100
AcDbEntity
  8
0
  6
Continuous
 62
     7
100
AcDbPolyline
 90
       17
 70
   128
 43
0.0
 10
263.016207042
 20
93.5592673745
 10
263.0083007795
 20
94.1018383913
 10
262.5978553949
 20
94.6015503517
 10
261.8473574775
 20
94.9823266396
 10
260.8710635318
 20
95.1861975169
 10
259.817605461
 20
95.1821254906
 10
258.8473627067
 20
94.9707304899
 10
258.1080459329
 20
94.5841954873
 10
257.7122094167
 20
94.081366933
 10
257.7201156792
 20
93.5387959162
 10
258.1305610638
 20
93.0390839558
 10
258.8810589812
 20
92.6583076679
 10
259.8573529269
 20
92.4544367906
 10
260.9108109977
 20
92.4585088168
 10
261.881053752
 20
92.6699038176
 10
262.6203705258
 20
93.0564388202
 10
263.016207042
 20
93.5592673745
  0
LWPOLYLINE
  5
26F
330
25C
100
AcDbEntity
  8
0
  6
Continuous
 62
     7
100
AcDbPolyline
 90
       17
 70
   128
 43
0.0
 10
366.1558879956
 20
194.2267578783
 10
366.147981733
 20
194.7693288951
 10
365.7375363485
 20
195.2690408554
 10
364.987038431
 20
195.6498171433
 10
364.0107444854
 20
195.8536880206
 10
362.9572864145
 20
195.8496159944
 10
361.9870436602
 20
195.6382209937
 10
361.2477268865
 20
195.2516859911
 10
360.8518903702
 20
194.7488574367
 10
360.8597966328
 20
194.2062864199
 10
361.2702420173
 20
193.7065744596
 10
362.0207399347
 20
193.3257981717
 10
362.9970338804
 20
193.1219272944
 10
364.0504919513
 20
193.1259993206
 10
365.0207347056
 20
193.3373943213
 10
365.7600514793
 20
193.7239293239
 10
366.1558879956
 20
194.2267578783
  0
LWPOLYLINE
  5
270
330
25C
100
AcDbEntity
  8
0
  6
CENTERX2
 62
     7
100
AcDbPolyline
 90
        9
 70
   128
 43
0.0
 10
309.096195836
 20
135.041338344
 10
309.4021590819
 20
135.1676060367
 10
309.6544146318
 20
135.3221903914
 10
309.843268449
 20
135.4991508197
 10
309.9614629892
 20
135.6916868333
 10
310.0044561039
 20
135.8923993835
 10
309.9705955923
 20
136.0935752014
 10
309.8611826943
 20
136.2874832156
 10
309.6804220852
 20
136.4666716518
  0
LWPOLYLINE
  5
271
330
25C
100
AcDbEntity
  8
0
  6
CENTERX2
 62
     7
100
AcDbPolyline
 90
        9
 70
   128
 43
0.0
 10
288.9031591728
 20
116.6785197457
 10
289.2923909317
 20
116.6542720397
 10
289.6833284545
 20
116.6695998481
 10
290.0609482273
 20
116.7239141316
 10
290.41073853
 20
116.8151276224
 10
290.7192571136
 20
116.939735036
 10
290.9746477788
 20
117.0929477781
 10
291.1670960027
 20
117.2688779674
 10
291.289206106
 20
117.4607647035
  0
LWPOLYLINE
  5
272
330
25C
100
AcDbEntity
  8
0
  6
CENTERX2
 62
     7
100
AcDbPolyline
 90
        9
 70
   128
 43
0.0
 10
336.1429922064
 20
161.7420839187
 10
336.5040279253
 20
161.6633471146
 10
336.8879510149
 20
161.6223997092
 10
337.2800075223
 20
161.6208152887
 10
337.6651309316
 20
161.6586547415
 10
338.028521162
 20
161.7344639184
 10
338.356213327
 20
161.8453295144
 10
338.635614397
 20
161.9869910255
 10
338.8559871426
 20
162.154004478
  0
LWPOLYLINE
  5
273
330
25C
100
AcDbEntity
  8
0
  6
CENTERX2
 62
     7
100
AcDbPolyline
 90
        9
 70
   128
 43
0.0
 10
357.2356762926
 20
180.1676223719
 10
357.4723995508
 20
180.3285912657
 10
357.64360113
 20
180.5102528897
 10
357.7427018498
 20
180.7056260901
 10
357.7658933255
 20
180.9072027849
 10
357.7122843217
 20
181.1072364951
 10
357.5839350022
 20
181.298040038
 10
357.3857777591
 20
181.472280941
 10
357.1254276636
 20
181.6232632241
  0
LINE
  5
274
330
25C
100
AcDbEntity
  8
0
  6
Continuous
 62
     7
100
AcDbLine
 10
356.2553728826
 20
179.136144997
 30
0.0
 11
357.5362494824
 21
180.3863198255
 31
0.0
  0
LINE
  5
275
330
25C
100
AcDbEntity
  8
0
  6
Continuous
 62
     7
100
AcDbLine
 10
356.7008041699
 20
181.7780697777
 30
0.0
 11
346.9722043043
 21
184.4220947626
 31
0.0
  0
LINE
  5
276
330
25C
100
AcDbEntity
  8
0
  6
Continuous
 62
     7
100
AcDbLine
 10
344.2699771301
 20
183.991808389
 30
0.0
 11
342.9891005303
 21
182.7416335605
 31
0.0
  0
LINE
  5
277
330
25C
100
AcDbEntity
  8
0
  6
Continuous
 62
     7
100
AcDbLine
 10
326.8830385899
 20
167.0216233526
 30
0.0
 11
325.6021602515
 21
165.7714468272
 31
0.0
  0
LINE
  5
278
330
25C
100
AcDbEntity
  8
0
  6
Continuous
 62
     7
100
AcDbLine
 10
326.4376073026
 20
164.3796985718
 30
0.0
 11
336.1662071683
 21
161.735673587
 31
0.0
  0
LINE
  5
279
330
25C
100
AcDbEntity
  8
0
  6
Continuous
 62
     7
100
AcDbLine
 10
338.8684262822
 20
162.1659540596
 30
0.0
 11
340.1493046206
 21
163.4161305849
 31
0.0
  0
LINE
  5
27A
330
25C
100
AcDbEntity
  8
0
  6
Continuous
 62
     7
100
AcDbLine
 10
308.9379841492
 20
136.8154726107
 30
0.0
 11
301.8626399072
 21
138.7383995694
 31
0.0
  0
LINE
  5
27B
330
25C
100
AcDbEntity
  8
0
  6
Continuous
 62
     7
100
AcDbLine
 10
299.1604109944
 20
138.3081114989
 30
0.0
 11
296.8839128814
 21
136.0861795513
 31
0.0
  0
LINE
  5
27C
330
25C
100
AcDbEntity
  8
0
  6
Continuous
 62
     7
100
AcDbLine
 10
282.7690974446
 20
122.3096869754
 30
0.0
 11
280.4925993316
 21
120.0877550278
 31
0.0
  0
LINE
  5
27D
330
25C
100
AcDbEntity
  8
0
  6
Continuous
 62
     7
100
AcDbLine
 10
281.3280429055
 20
118.6960033786
 30
0.0
 11
288.4033871476
 21
116.7730764199
 31
0.0
  0
LINE
  5
27E
330
25C
100
AcDbEntity
  8
0
  6
Continuous
 62
     7
100
AcDbLine
 10
291.1056160603
 20
117.2033644904
 30
0.0
 11
293.3821141733
 21
119.425296438
 31
0.0
  0
LINE
  5
27F
330
25C
100
AcDbEntity
  8
0
  6
Continuous
 62
     7
100
AcDbLine
 10
307.4969296101
 20
133.2017890139
 30
0.0
 11
309.7734277231
 21
135.4237209615
 31
0.0
  0
LINE
  5
280
330
25C
100
AcDbEntity
  8
0
  6
Continuous
 62
     7
100
AcDbLine
 10
244.1508437844
 20
91.2385976613
 30
0.0
 11
265.3768788892
 21
85.4698161388
 31
0.0
  0
LINE
  5
281
330
25C
100
AcDbEntity
  8
0
  6
Continuous
 62
     7
100
AcDbLine
 10
358.4912162976
 20
202.8383065004
 30
0.0
 11
244.1508437844
 21
91.2385976613
 31
0.0
  0
LINE
  5
282
330
25C
100
AcDbEntity
  8
0
  6
Continuous
 62
     7
100
AcDbLine
 10
379.7172514025
 20
197.0695249779
 30
0.0
 11
358.4912162976
 21
202.8383065004
 31
0.0
  0
LINE
  5
283
330
25C
100
AcDbEntity
  8
0
  6
Continuous
 62
     7
100
AcDbLine
 10
265.3768788892
 20
85.4698161388
 30
0.0
 11
379.7172514025
 21
197.0695249779
 31
0.0
  0
LINE
  5
284
330
25C
100
AcDbEntity
  8
0
  6
CENTERX2
 62
     7
100
AcDbLine
 10
278.8885622893
 20
132.1706322507
 30
0.0
 11
304.7037996258
 21
125.1546038962
 31
0.0
  0
LINE
  5
285
330
25C
100
AcDbEntity
  8
0
  6
CENTERX2
 62
     7
100
AcDbLine
 10
358.4597653855
 20
168.4883921913
 30
0.0
 11
320.4692487835
 21
178.8134005654
 31
0.0
  0
LINE
  5
286
330
25C
100
AcDbEntity
  8
0
  6
CENTERX2
 62
     7
100
AcDbLine
 10
369.1042338501
 20
199.9539157391
 30
0.0
 11
254.7638613368
 21
88.3542069
 31
0.0
  0
LINE
  5
287
330
25C
100
AcDbEntity
  8
0
  6
CENTERX2
 62
     7
100
AcDbLine
 10
262.697685174
 20
96.0978621878
 30
0.0
 11
258.0307312847
 21
91.5427721197
 31
0.0
  0
LINE
  5
288
330
25C
100
AcDbEntity
  8
0
  6
CENTERX2
 62
     7
100
AcDbLine
 10
264.7862988377
 20
92.6184876803
 30
0.0
 11
255.942117621
 21
95.0221466272
 31
0.0
  0
LINE
  5
289
330
25C
100
AcDbEntity
  8
0
  6
CENTERX2
 62
     7
100
AcDbLine
 10
365.8373661275
 20
196.7653526915
 30
0.0
 11
361.1704122382
 21
192.2102626235
 31
0.0
  0
LINE
  5
28A
330
25C
100
AcDbEntity
  8
0
  6
CENTERX2
 62
     7
100
AcDbLine
 10
367.9259797913
 20
193.2859781841
 30
0.0
 11
359.0817985745
 21
195.6896371309
 31
0.0
  0
LINE
  5
28B
330
25C
100
AcDbEntity
  8
0
  6
CENTERX2
 62
     7
100
AcDbLine
 10
231.8917742071
 20
101.5585146305
 30
0.0
 11
285.0082297488
 21
87.1226001623
 31
0.0
  0
LINE
  5
28C
330
25C
100
AcDbEntity
  8
0
  6
Continuous
 62
     7
100
AcDbLine
 10
242.4298775277
 20
107.4296861539
 30
0.0
 11
235.4294466938
 21
100.5970510518
 31
0.0
  0
LINE
  5
28D
330
25C
100
AcDbEntity
  8
0
  6
Continuous
 62
     7
100
AcDbLine
 10
288.470988096
 20
94.9166988431
 30
0.0
 11
281.4705572621
 21
88.084063741
 31
0.0
  0
LINE
  5
28E
330
25C
100
AcDbEntity
  8
0
  6
Continuous
 62
     7
100
AcDbLine
 10
191.3867636179
 20
50.6661444163
 30
0.0
 11
187.2000424359
 21
49.9994762734
 31
0.0
  0
LINE
  5
28F
330
25C
100
AcDbEntity
  8
0
  6
Continuous
 62
     7
100
AcDbLine
 10
199.3290667312
 20
48.507596613
 30
0.0
 11
191.2223857218
 21
47.2167378952
 31
0.0
  0
LINE
  5
290
330
25C
100
AcDbEntity
  8
0
  6
Continuous
 62
     7
100
AcDbLine
 10
215.2136675661
 20
44.1905024719
 30
0.0
 11
214.349647422
 21
44.0529210296
 31
0.0
  0
LINE
  5
291
330
25C
100
AcDbEntity
  8
0
  6
Continuous
 62
     7
100
AcDbLine
 10
223.1559691568
 20
42.0319550825
 30
0.0
 11
215.7115073099
 21
40.8465441772
 31
0.0
  0
LINE
  5
292
330
25C
100
AcDbEntity
  8
0
  6
Continuous
 62
     7
100
AcDbLine
 10
231.0982706226
 20
39.8734077271
 30
0.0
 11
222.9915896132
 21
38.5825490092
 31
0.0
  0
LINE
  5
293
330
25C
100
AcDbEntity
  8
0
  6
Continuous
 62
     7
100
AcDbLine
 10
204.4430042973
 20
46.3024526586
 30
0.0
 11
205.0963776523
 21
46.9401650832
 31
0.0
  0
LINE
  5
294
330
25C
100
AcDbEntity
  8
0
  6
Continuous
 62
     7
100
AcDbLine
 10
204.4430042973
 20
46.3024526586
 30
0.0
 11
198.2278811176
 21
45.3127943562
 31
0.0
  0
LINE
  5
295
330
25C
100
AcDbEntity
  8
0
  6
Continuous
 62
     7
100
AcDbLine
 10
198.2278811176
 20
45.3127943562
 30
0.0
 11
185.8460280383
 21
48.6779167122
 31
0.0
  0
LINE
  5
296
330
25C
100
AcDbEntity
  8
0
  6
Continuous
 62
     7
100
AcDbLine
 10
188.6462003962
 20
51.4109707768
 30
0.0
 11
185.8460280383
 21
48.6779167122
 31
0.0
  0
LINE
  5
297
330
25C
100
AcDbEntity
  8
0
  6
Continuous
 62
     7
100
AcDbLine
 10
205.0963776523
 20
46.9401650832
 30
0.0
 11
188.6462003962
 21
51.4109707768
 31
0.0
  0
LINE
  5
298
330
25C
100
AcDbEntity
  8
0
  6
Continuous
 62
     7
100
AcDbLine
 10
214.6480933665
 20
44.3442134206
 30
0.0
 11
213.9947200115
 21
43.706500996
 31
0.0
  0
LINE
  5
299
330
25C
100
AcDbEntity
  8
0
  6
Continuous
 62
     7
100
AcDbLine
 10
204.4430042973
 20
46.3024526586
 30
0.0
 11
213.9947200115
 21
43.706500996
 31
0.0
  0
LINE
  5
29A
330
25C
100
AcDbEntity
  8
0
  6
Continuous
 62
     7
100
AcDbLine
 10
205.0963776523
 20
46.9401650832
 30
0.0
 11
214.6480933665
 21
44.3442134206
 31
0.0
  0
LINE
  5
29B
330
25C
100
AcDbEntity
  8
0
  6
Continuous
 62
     7
100
AcDbLine
 10
215.9162451853
 20
40.5054760184
 30
0.0
 11
213.9947200115
 21
43.706500996
 31
0.0
  0
LINE
  5
29C
330
25C
100
AcDbEntity
  8
0
  6
Continuous
 62
     7
100
AcDbLine
 10
215.9162451853
 20
40.5054760184
 30
0.0
 11
198.2278811176
 21
45.3127943562
 31
0.0
  0
LINE
  5
29D
330
25C
100
AcDbEntity
  8
0
  6
Continuous
 62
     7
100
AcDbLine
 10
231.0982706226
 20
39.8734077271
 30
0.0
 11
214.6480933665
 21
44.3442134206
 31
0.0
  0
LINE
  5
29E
330
25C
100
AcDbEntity
  8
0
  6
Continuous
 62
     7
100
AcDbLine
 10
228.2980982647
 20
37.1403536624
 30
0.0
 11
215.9162451853
 21
40.5054760184
 31
0.0
  0
LINE
  5
29F
330
25C
100
AcDbEntity
  8
0
  6
Continuous
 62
     7
100
AcDbLine
 10
228.2980982647
 20
37.1403536624
 30
0.0
 11
231.0982706226
 21
39.8734077271
 31
0.0
  0
LINE
  5
2A0
330
25C
100
AcDbEntity
  8
0
  6
Continuous
 62
     7
100
AcDbLine
 10
235.4294466938
 20
100.5970510518
 30
0.0
 11
240.4896369877
 21
103.8805742642
 31
0.0
  0
LINE
  5
2A1
330
25C
100
AcDbEntity
  8
0
  6
Continuous
 62
     7
100
AcDbLine
 10
240.4896369877
 20
103.8805742642
 30
0.0
 11
237.8363826227
 21
104.6016719483
 31
0.0
  0
LINE
  5
2A2
330
25C
100
AcDbEntity
  8
0
  6
Continuous
 62
     7
100
AcDbLine
 10
237.8363826227
 20
104.6016719483
 30
0.0
 11
235.4294466938
 21
100.5970510518
 31
0.0
  0
LINE
  5
2A3
330
25C
100
AcDbEntity
  8
0
  6
Continuous
 62
     7
100
AcDbLine
 10
281.4705572621
 20
88.084063741
 30
0.0
 11
286.5307475561
 21
91.3675869534
 31
0.0
  0
LINE
  5
2A4
330
25C
100
AcDbEntity
  8
0
  6
Continuous
 62
     7
100
AcDbLine
 10
286.5307475561
 20
91.3675869534
 30
0.0
 11
283.877493191
 21
92.0886846375
 31
0.0
  0
LINE
  5
2A5
330
25C
100
AcDbEntity
  8
0
  6
Continuous
 62
     7
100
AcDbLine
 10
283.877493191
 20
92.0886846375
 30
0.0
 11
281.4705572621
 21
88.084063741
 31
0.0
  0
LWPOLYLINE
  5
2A6
330
25C
100
AcDbEntity
  8
0
  6
Continuous
 62
     7
100
AcDbPolyline
 90
       61
 70
   128
 43
0.0
 10
238.4541083242
 20
111.1681196254
 10
238.7422551879
 20
110.1266271581
 10
238.7422551879
 20
110.1266271581
 10
238.7013043132
 20
110.0656291695
 10
238.7013043132
 20
110.0656291695
 10
237.9356321907
 20
109.3183097052
 10
237.9356321907
 20
109.3183097052
 10
237.864204105
 20
109.2822395908
 10
237.864204105
 20
109.2822395908
 10
236.2918414808
 20
108.8873198898
 10
236.2918414808
 20
108.8873198898
 10
236.5347269585
 20
107.9846291389
 10
236.5347269585
 20
107.9846291389
 10
236.5172268071
 20
107.9339025675
 10
236.5172268071
 20
107.9339025675
 10
235.7319904724
 20
107.1674878324
 10
235.7319904724
 20
107.1674878324
 10
235.6543374101
 20
107.12534195
 10
235.6543374101
 20
107.12534195
 10
233.8029923436
 20
106.6642078907
 10
233.8029923436
 20
106.6642078907
 10
233.7091344739
 20
106.6819488653
 10
233.7091344739
 20
106.6819488653
 10
230.594796271
 20
107.5283592567
 10
230.594796271
 20
107.5283592567
 10
230.5611351977
 20
107.5585910554
 10
230.5506448973
 20
107.5925124273
 10
230.5607508394
 20
107.6297134198
 10
230.5940275544
 20
107.6706039855
 10
230.5940275544
 20
107.6706039855
 10
230.6555307861
 20
107.7138100816
 10
230.7315480316
 20
107.7375364132
 10
230.7785922261
 20
107.7413956304
 10
230.8321907788
 20
107.7390348945
 10
230.8931396552
 20
107.7291282244
 10
230.9606428898
 20
107.7130016011
 10
230.9606428898
 20
107.7130016011
 10
231.6785585145
 20
107.5178875174
 10
231.6785585145
 20
107.5178875174
 10
235.8901998292
 20
111.6285785544
 10
235.8901998292
 20
111.6285785544
 10
235.0442053607
 20
111.8585017235
 10
235.0442053607
 20
111.8585017235
 10
235.0077831235
 20
111.8839356737
 10
234.9919571289
 20
111.9126492444
 10
234.9925609153
 20
111.9468844455
 10
235.0137609442
 20
111.9843992672
 10
235.0137609442
 20
111.9843992672
 10
235.079007939
 20
112.0354651267
 10
235.1494534255
 20
112.0684733262
 10
235.1907392274
 20
112.0772265154
 10
235.2376901051
 20
112.0788917847
 10
235.2911020242
 20
112.0721431528
 10
235.3493830535
 20
112.0596325821
 10
235.3493830535
 20
112.0596325821
 10
235.4454421864
 20
112.0335257681
 10
235.4454421864
 20
112.0335257681
 10
238.352494892
 20
111.2434511333
 10
238.352494892
 20
111.2434511333
 10
238.4252899352
 20
111.2114607981
 10
238.4541313294
 20
111.1681133731
  0
LWPOLYLINE
  5
2A7
330
25C
100
AcDbEntity
  8
0
  6
Continuous
 62
     7
100
AcDbPolyline
 90
       12
 70
   128
 43
0.0
 10
238.323465112
 20
110.1006288284
 10
238.0709106704
 20
111.0359080748
 10
238.0709106704
 20
111.0359080748
 10
236.2137674347
 20
111.5406398125
 10
236.2137674347
 20
111.5406398125
 10
234.1648608492
 20
109.5408441729
 10
234.1648608492
 20
109.5408441729
 10
236.0135778452
 20
109.0384025066
 10
236.0135778452
 20
109.0384025066
 10
237.6636429628
 20
109.4565905249
 10
237.6636429628
 20
109.4565905249
 10
238.323490483
 20
110.1006219332
  0
LWPOLYLINE
  5
2A8
330
25C
100
AcDbEntity
  8
0
  6
Continuous
 62
     7
100
AcDbPolyline
 90
       12
 70
   128
 43
0.0
 10
236.0815842517
 20
107.9124843807
 10
235.7859215579
 20
108.8162029911
 10
235.7859215579
 20
108.8162029911
 10
233.9372045619
 20
109.3186446573
 10
233.9372045619
 20
109.3186446573
 10
232.00212612
 20
107.4299487755
 10
232.00212612
 20
107.4299487755
 10
233.8592693557
 20
106.9252170378
 10
233.8592693557
 20
106.9252170378
 10
235.4662262211
 20
107.3118444201
 10
235.4662262211
 20
107.3118444201
 10
236.0816096227
 20
107.9124774855
  0
LWPOLYLINE
  5
2A9
330
25C
100
AcDbEntity
  8
0
  6
Continuous
 62
     7
100
AcDbPolyline
 90
       61
 70
   128
 43
0.0
 10
299.790309768
 20
95.7088581569
 10
300.0785138449
 20
94.6673501402
 10
300.0785138449
 20
94.6673501402
 10
300.0375629702
 20
94.6063521516
 10
300.0375629702
 20
94.6063521516
 10
299.2718908477
 20
93.8590326874
 10
299.2718908477
 20
93.8590326874
 10
299.200462762
 20
93.822962573
 10
299.200462762
 20
93.822962573
 10
297.6281001378
 20
93.4280428719
 10
297.6281001378
 20
93.4280428719
 10
297.8709856155
 20
92.5253521211
 10
297.8709856155
 20
92.5253521211
 10
297.8534854641
 20
92.4746255497
 10
297.8534854641
 20
92.4746255497
 10
297.0682491294
 20
91.7082108145
 10
297.0682491294
 20
91.7082108145
 10
296.9905960671
 20
91.6660649322
 10
296.9905960671
 20
91.6660649322
 10
295.1392510007
 20
91.2049308729
 10
295.1392510007
 20
91.2049308729
 10
295.0453931309
 20
91.2226718475
 10
295.0453931309
 20
91.2226718475
 10
291.931054928
 20
92.0690822388
 10
291.931054928
 20
92.0690822388
 10
291.8973938547
 20
92.0993140375
 10
291.8869035543
 20
92.1332354094
 10
291.8970094964
 20
92.170436402
 10
291.9302862114
 20
92.2113269677
 10
291.9302862114
 20
92.2113269677
 10
291.9917894431
 20
92.2545330637
 10
292.0678066886
 20
92.2782593953
 10
292.1148508831
 20
92.2821186125
 10
292.1684494358
 20
92.2797578767
 10
292.2293983122
 20
92.2698512065
 10
292.2969015468
 20
92.2537245833
 10
292.2969015468
 20
92.2537245833
 10
293.0148171715
 20
92.0586104996
 10
293.0148171715
 20
92.0586104996
 10
297.2264584862
 20
96.1693015366
 10
297.2264584862
 20
96.1693015366
 10
296.3804640177
 20
96.3992247057
 10
296.3804640177
 20
96.3992247057
 10
296.3440417805
 20
96.4246586558
 10
296.3282157859
 20
96.4533722266
 10
296.3288195723
 20
96.4876074277
 10
296.3500196012
 20
96.5251222493
 10
296.3500196012
 20
96.5251222493
 10
296.415266596
 20
96.5761881088
 10
296.4857120825
 20
96.6091963083
 10
296.5269978844
 20
96.6179494976
 10
296.5739487621
 20
96.6196147668
 10
296.6273606812
 20
96.6128661349
 10
296.6856417105
 20
96.6003555642
 10
296.6856417105
 20
96.6003555642
 10
296.7817008434
 20
96.5742487502
 10
296.7817008434
 20
96.5742487502
 10
299.688753549
 20
95.7841741154
 10
299.688753549
 20
95.7841741154
 10
299.7615485922
 20
95.7521837802
 10
299.7903899864
 20
95.7088363553
  0
LWPOLYLINE
  5
2AA
330
25C
100
AcDbEntity
  8
0
  6
Continuous
 62
     7
100
AcDbPolyline
 90
       12
 70
   128
 43
0.0
 10
299.6596665558
 20
94.6413673599
 10
299.4071693274
 20
95.5766310569
 10
299.4071693274
 20
95.5766310569
 10
297.5500260917
 20
96.0813627946
 10
297.5500260917
 20
96.0813627946
 10
295.5011195062
 20
94.081567155
 10
295.5011195062
 20
94.081567155
 10
297.3498365022
 20
93.5791254887
 10
297.3498365022
 20
93.5791254887
 10
298.9999016198
 20
93.9973135071
 10
298.9999016198
 20
93.9973135071
 10
299.65974914
 20
94.6413449153
  0
LWPOLYLINE
  5
2AB
330
25C
100
AcDbEntity
  8
0
  6
Continuous
 62
     7
100
AcDbPolyline
 90
       12
 70
   128
 43
0.0
 10
297.4177856955
 20
92.4532229122
 10
297.1221802149
 20
93.3569259732
 10
297.1221802149
 20
93.3569259732
 10
295.2734632189
 20
93.8593676395
 10
295.2734632189
 20
93.8593676395
 10
293.338384777
 20
91.9706717576
 10
293.338384777
 20
91.9706717576
 10
295.1955280127
 20
91.4659400199
 10
295.1955280127
 20
91.4659400199
 10
296.8024848781
 20
91.8525674022
 10
296.8024848781
 20
91.8525674022
 10
297.4178682797
 20
92.4532004676
  0
LWPOLYLINE
  5
2AC
330
25C
100
AcDbEntity
  8
0
  6
Continuous
 62
     7
100
AcDbPolyline
 90
       61
 70
   128
 43
0.0
 10
196.9964977288
 20
66.7856462155
 10
197.1981962477
 20
66.0566026531
 10
197.1981962477
 20
66.0566026531
 10
197.1695306354
 20
66.0139040611
 10
197.1695306354
 20
66.0139040611
 10
196.6335601497
 20
65.4907804361
 10
196.6335601497
 20
65.4907804361
 10
196.5835604897
 20
65.4655313561
 10
196.5835604897
 20
65.4655313561
 10
195.4829066528
 20
65.1890875653
 10
195.4829066528
 20
65.1890875653
 10
195.6529264872
 20
64.5572040397
 10
195.6529264872
 20
64.5572040397
 10
195.6406763811
 20
64.5216954398
 10
195.6406763811
 20
64.5216954398
 10
195.0910109469
 20
63.9852051252
 10
195.0910109469
 20
63.9852051252
 10
195.0366538032
 20
63.9557030075
 10
195.0366538032
 20
63.9557030075
 10
193.7407122567
 20
63.632909166
 10
193.7407122567
 20
63.632909166
 10
193.6750117479
 20
63.6453278482
 10
193.6750117479
 20
63.6453278482
 10
191.4949750059
 20
64.2378151222
 10
191.4949750059
 20
64.2378151222
 10
191.4714122546
 20
64.2589773813
 10
191.4640690443
 20
64.2827223416
 10
191.4711432038
 20
64.3087630364
 10
191.4944369043
 20
64.3373864324
 10
191.4944369043
 20
64.3373864324
 10
191.5374891664
 20
64.3676306996
 10
191.5907012383
 20
64.3842391317
 10
191.6236321745
 20
64.3869405838
 10
191.6611511613
 20
64.3852880686
 10
191.7038153748
 20
64.3783533996
 10
191.7510676391
 20
64.3670647633
 10
191.7510676391
 20
64.3670647633
 10
192.2536085763
 20
64.2304849047
 10
192.2536085763
 20
64.2304849047
 10
195.2017574967
 20
67.1079686306
 10
195.2017574967
 20
67.1079686306
 10
194.6095613687
 20
67.2689148489
 10
194.6095613687
 20
67.2689148489
 10
194.5840658026
 20
67.286718614
 10
194.5729876064
 20
67.3068181136
 10
194.5734102569
 20
67.3307827543
 10
194.5882502771
 20
67.3570431295
 10
194.5882502771
 20
67.3570431295
 10
194.6339231735
 20
67.3927892312
 10
194.6832350141
 20
67.4158949708
 10
194.7121350754
 20
67.4220222033
 10
194.7450006898
 20
67.4231878917
 10
194.7823890331
 20
67.4184638494
 10
194.8231857536
 20
67.40970645
 10
194.8231857536
 20
67.40970645
 10
194.8904271466
 20
67.3914316801
 10
194.8904271466
 20
67.3914316801
 10
196.9253640406
 20
66.8383794358
 10
196.9253640406
 20
66.8383794358
 10
196.9763205708
 20
66.8159862012
 10
196.9965095468
 20
66.7856430037
  0
LWPOLYLINE
  5
2AD
330
25C
100
AcDbEntity
  8
0
  6
Continuous
 62
     7
100
AcDbPolyline
 90
       12
 70
   128
 43
0.0
 10
196.9050474803
 20
66.0384026576
 10
196.7282550855
 20
66.6930992948
 10
196.7282550855
 20
66.6930992948
 10
195.4282548205
 20
67.0464115112
 10
195.4282548205
 20
67.0464115112
 10
193.9940202106
 20
65.6465545635
 10
193.9940202106
 20
65.6465545635
 10
195.2881221078
 20
65.2948453971
 10
195.2881221078
 20
65.2948453971
 10
196.4431676901
 20
65.5875770099
 10
196.4431676901
 20
65.5875770099
 10
196.9050609543
 20
66.0383989957
  0
LWPOLYLINE
  5
2AE
330
25C
100
AcDbEntity
  8
0
  6
Continuous
 62
     7
100
AcDbPolyline
 90
       12
 70
   128
 43
0.0
 10
195.3357308781
 20
64.5067015442
 10
195.1287627067
 20
65.1393057362
 10
195.1287627067
 20
65.1393057362
 10
193.8346608095
 20
65.4910149026
 10
193.8346608095
 20
65.4910149026
 10
192.4801059002
 20
64.1689277853
 10
192.4801059002
 20
64.1689277853
 10
193.7801061652
 20
63.8156155689
 10
193.7801061652
 20
63.8156155689
 10
194.904975971
 20
64.0862547365
 10
194.904975971
 20
64.0862547365
 10
195.335744352
 20
64.5066978823
  0
LWPOLYLINE
  5
2AF
330
25C
100
AcDbEntity
  8
0
  6
Continuous
 62
     7
100
AcDbPolyline
 90
       29
 70
   128
 43
0.0
 10
200.2861196217
 20
63.9862092998
 10
200.3156909805
 20
63.951762655
 10
200.3132394736
 20
63.9081536975
 10
200.3132394736
 20
63.9081536975
 10
200.2999057357
 20
63.8892515303
 10
200.2761855028
 20
63.8646278483
 10
200.2761855028
 20
63.8646278483
 10
200.2453219069
 20
63.8403920627
 10
200.2012206146
 20
63.8135399326
 10
200.1733042616
 20
63.8024847994
 10
200.1390630084
 20
63.7970324301
 10
200.0978743573
 20
63.796575248
 10
200.0503608061
 20
63.8017208299
 10
200.0503608061
 20
63.8017208299
 10
197.2521751177
 20
64.5622077421
 10
197.2521751177
 20
64.5622077421
 10
197.2214344015
 20
64.5969721932
 10
197.2191672142
 20
64.6418635907
 10
197.2191672142
 20
64.6418635907
 10
197.2337459474
 20
64.6619809115
 10
197.2612011662
 20
64.6902500543
 10
197.2612011662
 20
64.6902500543
 10
197.3166380598
 20
64.7311100939
 10
197.379614129
 20
64.752832464
 10
197.379614129
 20
64.752832464
 10
197.4137247387
 20
64.7552133061
 10
197.4631711047
 20
64.7534262182
 10
197.4631711047
 20
64.7534262182
 10
200.2861299378
 20
63.9862064961
  0
LWPOLYLINE
  5
2B0
330
25C
100
AcDbEntity
  8
0
  6
Continuous
 62
     7
100
AcDbPolyline
 90
       61
 70
   128
 43
0.0
 10
205.4523686687
 20
64.4875216815
 10
205.6540963379
 20
63.7584701966
 10
205.6540963379
 20
63.7584701966
 10
205.6254307256
 20
63.7157716046
 10
205.6254307256
 20
63.7157716046
 10
205.0894602399
 20
63.1926479796
 10
205.0894602399
 20
63.1926479796
 10
205.0394605799
 20
63.1673988996
 10
205.0394605799
 20
63.1673988996
 10
203.938806743
 20
62.8909551088
 10
203.938806743
 20
62.8909551088
 10
204.1088265773
 20
62.2590715832
 10
204.1088265773
 20
62.2590715832
 10
204.0965764713
 20
62.2235629833
 10
204.0965764713
 20
62.2235629833
 10
203.546911037
 20
61.6870726687
 10
203.546911037
 20
61.6870726687
 10
203.4925538934
 20
61.657570551
 10
203.4925538934
 20
61.657570551
 10
202.1966123469
 20
61.3347767095
 10
202.1966123469
 20
61.3347767095
 10
202.1309118381
 20
61.3471953917
 10
202.1309118381
 20
61.3471953917
 10
199.9508750961
 20
61.9396826657
 10
199.9508750961
 20
61.9396826657
 10
199.9273123448
 20
61.9608449248
 10
199.9199691345
 20
61.9845898851
 10
199.927043294
 20
62.0106305799
 10
199.9503369944
 20
62.0392539759
 10
199.9503369944
 20
62.0392539759
 10
199.9933892566
 20
62.0694982431
 10
200.0466013285
 20
62.0861066752
 10
200.0795322646
 20
62.0888081273
 10
200.1170512515
 20
62.0871556122
 10
200.159715465
 20
62.0802209431
 10
200.2069677292
 20
62.0689323068
 10
200.2069677292
 20
62.0689323068
 10
200.7095086665
 20
61.9323524482
 10
200.7095086665
 20
61.9323524482
 10
203.6576575868
 20
64.8098361741
 10
203.6576575868
 20
64.8098361741
 10
203.0654614589
 20
64.9707823925
 10
203.0654614589
 20
64.9707823925
 10
203.0399658928
 20
64.9885861576
 10
203.0288876966
 20
65.0086856571
 10
203.0293103471
 20
65.0326502978
 10
203.0441503673
 20
65.058910673
 10
203.0441503673
 20
65.058910673
 10
203.0898232636
 20
65.0946567747
 10
203.1391351042
 20
65.1177625143
 10
203.1680351656
 20
65.1238897468
 10
203.2009007799
 20
65.1250554353
 10
203.2382891233
 20
65.120331393
 10
203.2790858438
 20
65.1115739935
 10
203.2790858438
 20
65.1115739935
 10
203.3463272368
 20
65.0932992236
 10
203.3463272368
 20
65.0932992236
 10
205.3812641307
 20
64.5402469793
 10
205.3812641307
 20
64.5402469793
 10
205.432220661
 20
64.5178537447
 10
205.452409637
 20
64.4875105472
  0
LWPOLYLINE
  5
2B1
330
25C
100
AcDbEntity
  8
0
  6
Continuous
 62
     7
100
AcDbPolyline
 90
       12
 70
   128
 43
0.0
 10
205.3609184201
 20
63.7402781236
 10
205.1841551757
 20
64.3949668383
 10
205.1841551757
 20
64.3949668383
 10
203.8841549107
 20
64.7482790547
 10
203.8841549107
 20
64.7482790547
 10
202.4499203008
 20
63.348422107
 10
202.4499203008
 20
63.348422107
 10
203.744022198
 20
62.9967129406
 10
203.744022198
 20
62.9967129406
 10
204.8990677803
 20
63.2894445534
 10
204.8990677803
 20
63.2894445534
 10
205.3609610445
 20
63.7402665392
  0
LWPOLYLINE
  5
2B2
330
25C
100
AcDbEntity
  8
0
  6
Continuous
 62
     7
100
AcDbPolyline
 90
       12
 70
   128
 43
0.0
 10
203.7916018179
 20
62.2085770102
 10
203.5846627969
 20
62.8411732797
 10
203.5846627969
 20
62.8411732797
 10
202.2905608997
 20
63.1928824461
 10
202.2905608997
 20
63.1928824461
 10
200.9360059904
 20
61.8707953288
 10
200.9360059904
 20
61.8707953288
 10
202.2360062553
 20
61.5174831124
 10
202.2360062553
 20
61.5174831124
 10
203.3608760611
 20
61.78812228
 10
203.3608760611
 20
61.78812228
 10
203.7916444422
 20
62.2085654258
  0
POINT
  5
2B3
330
25C
100
AcDbEntity
  8
0
  6
Continuous
 62
     7
100
AcDbPoint
 10
345.2033680609
 20
184.9028265519
 30
0.0
  0
POINT
  5
2B4
330
25C
100
AcDbEntity
  8
0
  6
Continuous
 62
     7
100
AcDbPoint
 10
324.6687710593
 20
164.8604303612
 30
0.0
  0
POINT
  5
2B5
330
25C
100
AcDbEntity
  8
0
  6
Continuous
 62
     7
100
AcDbPoint
 10
336.2626965841
 20
174.5210796576
 30
0.0
  0
POINT
  5
2B6
330
25C
100
AcDbEntity
  8
0
  6
Continuous
 62
     7
100
AcDbPoint
 10
346.8757133128
 20
171.6366891202
 30
0.0
  0
POINT
  5
2B7
330
25C
100
AcDbEntity
  8
0
  6
Continuous
 62
     7
100
AcDbPoint
 10
337.9350434116
 20
161.2549417976
 30
0.0
  0
POINT
  5
2B8
330
25C
100
AcDbEntity
  8
0
  6
Continuous
 62
     7
100
AcDbPoint
 10
290.8435869068
 20
128.9215127248
 30
0.0
  0
POINT
  5
2B9
330
25C
100
AcDbEntity
  8
0
  6
Continuous
 62
     7
100
AcDbPoint
 10
299.4224426871
 20
126.5899635464
 30
0.0
  0
POINT
  5
2BA
330
25C
100
AcDbEntity
  8
0
  6
Continuous
 62
     7
100
AcDbPoint
 10
205.0963776523
 20
46.9401650832
 30
0.0
  0
POINT
  5
2BB
330
25C
100
AcDbEntity
  8
0
  6
Continuous
 62
     7
100
AcDbPoint
 10
214.6480933665
 20
44.3442134206
 30
0.0
  0
POINT
  5
2BC
330
25C
100
AcDbEntity
  8
0
  6
Continuous
 62
     7
100
AcDbPoint
 10
215.9162451853
 20
40.5054760184
 30
0.0
  0
VIEWPORT
  5
32E
330
25C
100
AcDbEntity
  8
0
100
AcDbViewport
 10
0.0
 20
0.0
 30
0.0
 40
205.6
 41
156.0
 68
     1
 69
     1
 12
143.0047148344
 22
342.9703857442
 13
0.0
 23
0.0
 14
10.0
 24
10.0
 15
10.0
 25
10.0
 16
0.0
 26
0.0
 36
1.0
 17
0.0
 27
0.0
 37
0.0
 42
50.0
 43
0.0
 44
0.0
 45
352.2012672449
 50
0.0
 51
0.0
 72
   100
 90
   557152
  1

281
     0
 71
     1
 74
     0
110
0.0
120
0.0
130
0.0
111
1.0
121
0.0
131
0.0
112
0.0
122
1.0
132
0.0
 79
     0
146
0.0
170
     0
 61
     5
348
2F
292
     1
282
     1
141
0.0
142
0.0
 63
   256
361
32F
  0
ENDBLK
  5
25F
330
25C
100
AcDbEntity
  8
0
100
AcDbBlockEnd
  0
BLOCK
  5
2BF
330
2BD
100
AcDbEntity
  8
0
100
AcDbBlockBegin
  2
*Paper_Space8
 70
     0
 10
0.0
 20
0.0
 30
0.0
  3
*Paper_Space8
  1

  0
LWPOLYLINE
  5
2C1
330
2BD
100
AcDbEntity
  8
0
  6
Continuous
 62
     7
100
AcDbPolyline
 90
        9
 70
   128
 43
0.0
 10
310.4303934866
 20
129.7534728382
 10
308.3022748325
 20
128.4944944559
 10
306.3398559431
 20
127.2059534976
 10
304.5468250137
 20
125.8902716636
 10
302.9265518895
 20
124.5499216632
 10
301.4820817326
 20
123.1874225674
 10
300.2161292987
 20
121.8053350745
 10
299.1310738351
 20
120.4062566973
 10
298.2289546089
 20
118.9928168818
  0
LWPOLYLINE
  5
2C2
330
2BD
100
AcDbEntity
  8
0
  6
Continuous
 62
     7
100
AcDbPolyline
 90
        9
 70
   128
 43
0.0
 10
311.4007443309
 20
130.6092418444
 10
311.5027465669
 20
130.735430995
 10
311.5289340245
 20
130.8658286725
 10
311.4783003347
 20
130.995423769
 10
311.3527913212
 20
131.1192360189
 10
311.1572302235
 20
131.2325073887
 10
310.8991323426
 20
131.3308849243
 10
310.5884162322
 20
131.4105880334
 10
310.2370225344
 20
131.4685537712
  0
LWPOLYLINE
  5
2C3
330
2BD
100
AcDbEntity
  8
0
  6
Continuous
 62
     7
100
AcDbPolyline
 90
        9
 70
   128
 43
0.0
 10
299.9474641628
 20
132.7649162731
 10
299.5688966916
 20
132.7989170222
 10
299.1777036364
 20
132.8076461706
 10
298.78891833
 20
132.7907682618
 10
298.4174815767
 20
132.7489319046
 10
298.0776674858
 20
132.683744847
 10
297.7825349248
 20
132.5977121916
 10
297.5434256749
 20
132.4941401258
 10
297.3695285724
 20
132.3770088668
  0
LWPOLYLINE
  5
2C4
330
2BD
100
AcDbEntity
  8
0
  6
Continuous
 62
     7
100
AcDbPolyline
 90
        9
 70
   128
 43
0.0
 10
284.1977441124
 20
120.7605868651
 10
286.3258617676
 20
122.0195649413
 10
288.2882797486
 20
123.3081055711
 10
290.0813098643
 20
124.6237870559
 10
291.7015822727
 20
125.9641366888
 10
293.1460518151
 20
127.3266354008
 10
294.4120037384
 20
128.708722496
 10
295.4970587978
 20
130.1078004638
 10
296.3991777281
 20
131.5212398606
  0
LWPOLYLINE
  5
2C5
330
2BD
100
AcDbEntity
  8
0
  6
Continuous
 62
     7
100
AcDbPolyline
 90
        9
 70
   128
 43
0.0
 10
283.227391951
 20
119.9048166973
 10
283.125390423
 20
119.7786276357
 10
283.0992035367
 20
119.648230093
 10
283.1498376374
 20
119.5186351629
 10
283.2753468891
 20
119.3948230951
 10
283.4709080521
 20
119.2815519078
 10
283.7290058367
 20
119.1831745398
 10
284.0397217112
 20
119.1034715699
 10
284.3911150646
 20
119.0455059321
  0
LWPOLYLINE
  5
2C6
330
2BD
100
AcDbEntity
  8
0
  6
Continuous
 62
     7
100
AcDbPolyline
 90
        9
 70
   128
 43
0.0
 10
294.6806734362
 20
117.7491434303
 10
295.0592390665
 20
117.715142889
 10
295.4504301696
 20
117.7064137003
 10
295.8392136334
 20
117.7232913188
 10
296.2106488691
 20
117.7651271533
 10
296.5504619645
 20
117.8303134912
 10
296.8455942167
 20
117.9163452821
 10
297.0847039665
 20
118.0199164038
 10
297.2586024475
 20
118.137046714
  0
LWPOLYLINE
  5
2C7
330
2BD
100
AcDbEntity
  8
0
  6
Continuous
 62
     7
100
AcDbPolyline
 90
        9
 70
   128
 43
0.0
 10
266.1720229907
 20
101.5635636247
 10
265.7934550602
 20
101.5975643994
 10
265.4022615334
 20
101.6062935125
 10
265.0134757969
 20
101.5894155083
 10
264.6420387069
 20
101.5475790007
 10
264.3022244192
 20
101.4823917474
 10
264.0070918399
 20
101.3963588643
 10
263.7679827777
 20
101.2927865555
 10
263.5940860833
 20
101.1756550568
  0
LWPOLYLINE
  5
2C8
330
2BD
100
AcDbEntity
  8
0
  6
Continuous
 62
     7
100
AcDbPolyline
 90
        9
 70
   128
 43
0.0
 10
251.1765550385
 20
90.2244220426
 10
252.9765412189
 20
91.3380226477
 10
254.6484756433
 20
92.4735862521
 10
256.1899505744
 20
93.6294775414
 10
257.5987461486
 20
94.8040319272
 10
258.8728335725
 20
95.9955579446
 10
260.0103780446
 20
97.2023396882
 10
261.0097413976
 20
98.4226392828
 10
261.8694844578
 20
99.6546993862
  0
LWPOLYLINE
  5
2C9
330
2BD
100
AcDbEntity
  8
0
  6
Continuous
 62
     7
100
AcDbPolyline
 90
        9
 70
   128
 43
0.0
 10
249.451953413
 20
88.703466372
 10
249.3499503218
 20
88.5772771308
 10
249.3237621896
 20
88.4468793063
 10
249.3743954142
 20
88.3172840266
 10
249.4999041842
 20
88.1934715785
 10
249.6954652557
 20
88.0802000172
 10
249.9535633069
 20
87.9818223164
 10
250.2642797489
 20
87.9021190858
 10
250.6156738925
 20
87.8441532836
  0
LWPOLYLINE
  5
2CA
330
2BD
100
AcDbEntity
  8
0
  6
Continuous
 62
     7
100
AcDbPolyline
 90
        9
 70
   128
 43
0.0
 10
258.0989878927
 20
86.90134434
 10
258.4775558217
 20
86.8673435796
 10
258.8687493378
 20
86.8586144764
 10
259.2575350596
 20
86.8754924859
 10
259.6289721357
 20
86.917328994
 10
259.9687864154
 20
86.9825162435
 10
260.2639189968
 20
87.0685491194
 10
260.5030280746
 20
87.172121419
 10
260.6769248001
 20
87.2892529078
  0
LWPOLYLINE
  5
2CB
330
2BD
100
AcDbEntity
  8
0
  6
Continuous
 62
     7
100
AcDbPolyline
 90
        9
 70
   128
 43
0.0
 10
273.0944558449
 20
98.240485922
 10
271.2944696645
 20
97.126885317
 10
269.6225352401
 20
95.9913217125
 10
268.081060309
 20
94.8354304233
 10
266.6722647348
 20
93.6608760375
 10
265.3981773109
 20
92.46935002
 10
264.2606328388
 20
91.2625682764
 10
263.2612694858
 20
90.0422686818
 10
262.4015264256
 20
88.8102085784
  0
LWPOLYLINE
  5
2CC
330
2BD
100
AcDbEntity
  8
0
  6
Continuous
 62
     7
100
AcDbPolyline
 90
        9
 70
   128
 43
0.0
 10
274.8190574704
 20
99.7614415926
 10
274.9210604076
 20
99.887630832
 10
274.9472484319
 20
100.0180286438
 10
274.8966151505
 20
100.1476239058
 10
274.771106375
 20
100.2714363373
 10
274.5755453444
 20
100.3847078891
 10
274.3174473706
 20
100.4830855923
 10
274.0067310286
 20
100.5627888415
 10
273.6553369909
 20
100.620754681
  0
LWPOLYLINE
  5
2CD
330
2BD
100
AcDbEntity
  8
0
  6
Continuous
 62
     7
100
AcDbPolyline
 90
       17
 70
   128
 43
0.0
 10
240.7853299571
 20
70.8953043633
 10
240.5291605618
 20
71.5399748747
 10
239.5523767284
 20
72.1028955041
 10
238.0036849409
 20
72.4983666888
 10
236.1188594851
 20
72.6661815258
 10
234.1848479507
 20
72.5807917274
 10
232.4960860619
 20
72.2551971163
 10
231.3096725075
 20
71.7389665206
 10
230.8062279965
 20
71.1106913688
 10
231.0623973918
 20
70.4660208575
 10
232.0391812253
 20
69.903100228
 10
233.5878730127
 20
69.5076290433
 10
235.4726984685
 20
69.3398142064
 10
237.406710003
 20
69.4252040048
 10
239.0954718918
 20
69.7507986159
 10
240.2818854461
 20
70.2670292116
 10
240.7853299571
 20
70.8953043633
  0
LWPOLYLINE
  5
2CE
330
2BD
100
AcDbEntity
  8
0
  6
Continuous
 62
     7
100
AcDbPolyline
 90
       17
 70
   128
 43
0.0
 10
318.9206292603
 20
139.8041612223
 10
318.664459865
 20
140.4488317336
 10
317.6876760316
 20
141.0117523631
 10
316.1389842441
 20
141.4072235478
 10
314.2541587883
 20
141.5750383847
 10
312.3201472539
 20
141.4896485863
 10
310.631385365
 20
141.1640539752
 10
309.4449718107
 20
140.6478233796
 10
308.9415272997
 20
140.0195482278
 10
309.197696695
 20
139.3748777164
 10
310.1744805285
 20
138.811957087
 10
311.7231723159
 20
138.4164859023
 10
313.6079977717
 20
138.2486710653
 10
315.5420093061
 20
138.3340608637
 10
317.230771195
 20
138.6596554748
 10
318.4171847493
 20
139.1758860705
 10
318.9206292603
 20
139.8041612223
  0
LWPOLYLINE
  5
2CF
330
2BD
100
AcDbEntity
  8
0
  6
Continuous
 62
     7
100
AcDbPolyline
 90
       17
 70
   128
 43
0.0
 10
238.4901365062
 20
70.9448433746
 10
238.3518050327
 20
71.2929654507
 10
237.8243417627
 20
71.5969425906
 10
236.9880481974
 20
71.8104970304
 10
235.9702424513
 20
71.9011170423
 10
234.9258762227
 20
71.8550065512
 10
234.0139448027
 20
71.6791854612
 10
233.3732814834
 20
71.4004209395
 10
233.1014214475
 20
71.0611523576
 10
233.2397529209
 20
70.7130302814
 10
233.767216191
 20
70.4090531415
 10
234.6035097562
 20
70.1954987018
 10
235.6213155023
 20
70.1048786898
 10
236.6656817309
 20
70.150989181
 10
237.5776131509
 20
70.326810271
 10
238.2182764702
 20
70.6055747926
 10
238.4901365062
 20
70.9448433746
  0
LWPOLYLINE
  5
2D0
330
2BD
100
AcDbEntity
  8
0
  6
Continuous
 62
     7
100
AcDbPolyline
 90
       17
 70
   128
 43
0.0
 10
316.6254358094
 20
139.8537002336
 10
316.4871043359
 20
140.2018223097
 10
315.9596410658
 20
140.5057994496
 10
315.1233475006
 20
140.7193538893
 10
314.1055417545
 20
140.8099739013
 10
313.0611755259
 20
140.7638634101
 10
312.1492441059
 20
140.5880423201
 10
311.5085807866
 20
140.3092777985
 10
311.2367207506
 20
139.9700092165
 10
311.3750522241
 20
139.6218871404
 10
311.9025154942
 20
139.3179100005
 10
312.7388090594
 20
139.1043555608
 10
313.7566148055
 20
139.0137355488
 10
314.8009810341
 20
139.0598460399
 10
315.7129124541
 20
139.2356671299
 10
316.3535757734
 20
139.5144316516
 10
316.6254358094
 20
139.8537002336
  0
LWPOLYLINE
  5
2D1
330
2BD
100
AcDbEntity
  8
0
  6
CENTERX2
 62
     7
100
AcDbPolyline
 90
        9
 70
   128
 43
0.0
 10
274.2390022989
 20
99.4879071765
 10
274.5122425033
 20
99.5816311426
 10
274.7253785667
 20
99.6913230669
 10
274.8702197919
 20
99.8127675513
 10
274.9412000135
 20
99.9412975538
 10
274.935591502
 20
100.0719737398
 10
274.8536097895
 20
100.1997742982
 10
274.6984053862
 20
100.3197879266
 10
274.4759427086
 20
100.4274025698
  0
LWPOLYLINE
  5
2D2
330
2BD
100
AcDbEntity
  8
0
  6
CENTERX2
 62
     7
100
AcDbPolyline
 90
        9
 70
   128
 43
0.0
 10
258.6176517327
 20
86.8612530817
 10
259.0097175445
 20
86.8617514551
 10
259.3939582361
 20
86.8877363377
 10
259.755607649
 20
86.9382091448
 10
260.0807677953
 20
87.0112302341
 10
260.3569429494
 20
87.1039934454
 10
260.5735198522
 20
87.2129339395
 10
260.7221755723
 20
87.3338651931
 10
260.7971973523
 20
87.4621398848
  0
LWPOLYLINE
  5
2D3
330
2BD
100
AcDbEntity
  8
0
  6
CENTERX2
 62
     7
100
AcDbPolyline
 90
        9
 70
   128
 43
0.0
 10
294.6560955911
 20
117.7523017529
 10
295.0332869005
 20
117.7166421199
 10
295.4241011334
 20
117.7061964716
 10
295.8135195138
 20
117.7213662285
 10
296.1865769076
 20
117.7615684253
 10
296.5289369246
 20
117.8252581135
 10
296.8274428575
 20
117.9099877336
 10
297.0706232878
 20
118.0125011728
 10
297.2491329252
 20
118.1288588962
  0
LWPOLYLINE
  5
2D4
330
2BD
100
AcDbEntity
  8
0
  6
CENTERX2
 62
     7
100
AcDbPolyline
 90
        9
 70
   128
 43
0.0
 10
311.1550816514
 20
130.4563804294
 10
311.3512695799
 20
130.5695313153
 10
311.4774638863
 20
130.6932661604
 10
311.5288149946
 20
130.8228299044
 10
311.5033495107
 20
130.9532434854
 10
311.4020460586
 20
131.0794951832
 10
311.2287976731
 20
131.1967332159
 10
310.990262192
 20
131.3004521922
 10
310.6956063995
 20
131.38666625
  0
LINE
  5
2D5
330
2BD
100
AcDbEntity
  8
0
  6
Continuous
 62
     7
100
AcDbLine
 10
310.4303934866
 20
129.7534728382
 30
0.0
 11
311.4007443309
 21
130.6092418444
 31
0.0
  0
LINE
  5
2D6
330
2BD
100
AcDbEntity
  8
0
  6
Continuous
 62
     7
100
AcDbLine
 10
310.2370225344
 20
131.4685537712
 30
0.0
 11
299.9474641628
 21
132.7649162731
 31
0.0
  0
LINE
  5
2D7
330
2BD
100
AcDbEntity
  8
0
  6
Continuous
 62
     7
100
AcDbLine
 10
297.3695285724
 20
132.3770088668
 30
0.0
 11
296.3991777281
 21
131.5212398606
 31
0.0
  0
LINE
  5
2D8
330
2BD
100
AcDbEntity
  8
0
  6
Continuous
 62
     7
100
AcDbLine
 10
284.1977441124
 20
120.7605868651
 30
0.0
 11
283.227391951
 21
119.9048166973
 31
0.0
  0
LINE
  5
2D9
330
2BD
100
AcDbEntity
  8
0
  6
Continuous
 62
     7
100
AcDbLine
 10
284.3911150646
 20
119.0455059321
 30
0.0
 11
294.6806734362
 21
117.7491434303
 31
0.0
  0
LINE
  5
2DA
330
2BD
100
AcDbEntity
  8
0
  6
Continuous
 62
     7
100
AcDbLine
 10
297.2586024475
 20
118.137046714
 30
0.0
 11
298.2289546089
 21
118.9928168818
 31
0.0
  0
LINE
  5
2DB
330
2BD
100
AcDbEntity
  8
0
  6
Continuous
 62
     7
100
AcDbLine
 10
273.6553369909
 20
100.620754681
 30
0.0
 11
266.1720229907
 21
101.5635636247
 31
0.0
  0
LINE
  5
2DC
330
2BD
100
AcDbEntity
  8
0
  6
Continuous
 62
     7
100
AcDbLine
 10
263.5940860833
 20
101.1756550568
 30
0.0
 11
261.8694844578
 21
99.6546993862
 31
0.0
  0
LINE
  5
2DD
330
2BD
100
AcDbEntity
  8
0
  6
Continuous
 62
     7
100
AcDbLine
 10
251.1765550385
 20
90.2244220426
 30
0.0
 11
249.451953413
 21
88.703466372
 31
0.0
  0
LINE
  5
2DE
330
2BD
100
AcDbEntity
  8
0
  6
Continuous
 62
     7
100
AcDbLine
 10
250.6156738925
 20
87.8441532836
 30
0.0
 11
258.0989878927
 21
86.90134434
 31
0.0
  0
LINE
  5
2DF
330
2BD
100
AcDbEntity
  8
0
  6
Continuous
 62
     7
100
AcDbLine
 10
260.6769248001
 20
87.2892529078
 30
0.0
 11
262.4015264256
 21
88.8102085784
 31
0.0
  0
LINE
  5
2E0
330
2BD
100
AcDbEntity
  8
0
  6
Continuous
 62
     7
100
AcDbLine
 10
273.0944558449
 20
98.240485922
 30
0.0
 11
274.8190574704
 21
99.7614415926
 31
0.0
  0
LINE
  5
2E1
330
2BD
100
AcDbEntity
  8
0
  6
Continuous
 62
     7
100
AcDbLine
 10
220.3281643465
 20
68.6755525673
 30
0.0
 11
242.7781088631
 21
65.8471254193
 31
0.0
  0
LINE
  5
2E2
330
2BD
100
AcDbEntity
  8
0
  6
Continuous
 62
     7
100
AcDbLine
 10
306.9487467079
 20
145.067725685
 30
0.0
 11
220.3281643465
 21
68.6755525673
 31
0.0
  0
LINE
  5
2E3
330
2BD
100
AcDbEntity
  8
0
  6
Continuous
 62
     7
100
AcDbLine
 10
329.3986912245
 20
142.239298537
 30
0.0
 11
306.9487467079
 21
145.067725685
 31
0.0
  0
LINE
  5
2E4
330
2BD
100
AcDbEntity
  8
0
  6
Continuous
 62
     7
100
AcDbLine
 10
242.7781088631
 20
65.8471254193
 30
0.0
 11
329.3986912245
 21
142.239298537
 31
0.0
  0
LINE
  5
2E5
330
2BD
100
AcDbEntity
  8
0
  6
CENTERX2
 62
     7
100
AcDbLine
 10
244.9543866092
 20
96.397071787
 30
0.0
 11
272.2581502667
 21
92.9571209081
 31
0.0
  0
LINE
  5
2E6
330
2BD
100
AcDbEntity
  8
0
  6
CENTERX2
 62
     7
100
AcDbLine
 10
315.1785509811
 20
123.0063167824
 30
0.0
 11
274.9974721475
 21
128.0686568753
 31
0.0
  0
LINE
  5
2E7
330
2BD
100
AcDbEntity
  8
0
  6
CENTERX2
 62
     7
100
AcDbLine
 10
318.1737189662
 20
143.653512111
 30
0.0
 11
231.5531366048
 21
67.2613389933
 31
0.0
  0
LINE
  5
2E8
330
2BD
100
AcDbEntity
  8
0
  6
CENTERX2
 62
     7
100
AcDbLine
 10
237.5635459294
 20
72.5620217769
 30
0.0
 11
234.0280120243
 21
69.4439739552
 31
0.0
  0
LINE
  5
2E9
330
2BD
100
AcDbEntity
  8
0
  6
CENTERX2
 62
     7
100
AcDbLine
 10
240.4728507104
 20
70.4137422154
 30
0.0
 11
231.1187072432
 21
71.5922535168
 31
0.0
  0
LINE
  5
2EA
330
2BD
100
AcDbEntity
  8
0
  6
CENTERX2
 62
     7
100
AcDbLine
 10
315.6988452326
 20
141.4708786359
 30
0.0
 11
312.1633113275
 21
138.3528308142
 31
0.0
  0
LINE
  5
2EB
330
2BD
100
AcDbEntity
  8
0
  6
CENTERX2
 62
     7
100
AcDbLine
 10
318.6081500136
 20
139.3225990743
 30
0.0
 11
309.2540065464
 21
140.5011103757
 31
0.0
  0
LINE
  5
2EC
330
2BD
100
AcDbEntity
  8
0
  6
CENTERX2
 62
     7
100
AcDbLine
 10
205.6816026412
 20
74.7970274605
 30
0.0
 11
261.8607936178
 21
67.7191146935
 31
0.0
  0
LINE
  5
2ED
330
2BD
100
AcDbEntity
  8
0
  6
Continuous
 62
     7
100
AcDbLine
 10
214.7265608858
 20
79.0026946724
 30
0.0
 11
209.4232600281
 21
74.3256229399
 31
0.0
  0
LINE
  5
2EE
330
2BD
100
AcDbEntity
  8
0
  6
Continuous
 62
     7
100
AcDbLine
 10
263.4224370886
 20
72.8675909466
 30
0.0
 11
258.1191362309
 21
68.190519214
 31
0.0
  0
LINE
  5
2EF
330
2BD
100
AcDbEntity
  8
0
  6
Continuous
 62
     7
100
AcDbLine
 10
177.7279211377
 20
40.4406870737
 30
0.0
 11
173.7337722674
 21
39.8396791439
 31
0.0
  0
LINE
  5
2F0
330
2BD
100
AcDbEntity
  8
0
  6
Continuous
 62
     7
100
AcDbLine
 10
186.1281835205
 20
39.3823534927
 30
0.0
 11
178.3943771617
 21
38.2186315538
 31
0.0
  0
LINE
  5
2F1
330
2BD
100
AcDbEntity
  8
0
  6
Continuous
 62
     7
100
AcDbLine
 10
202.9287025835
 20
37.2656870491
 30
0.0
 11
202.1044239111
 21
37.1416560438
 31
0.0
  0
LINE
  5
2F2
330
2BD
100
AcDbEntity
  8
0
  6
Continuous
 62
     7
100
AcDbLine
 10
211.3289633559
 20
36.207353671
 30
0.0
 11
204.2269167356
 21
35.1386939683
 31
0.0
  0
LINE
  5
2F3
330
2BD
100
AcDbEntity
  8
0
  6
Continuous
 62
     7
100
AcDbLine
 10
219.7292239963
 20
35.1490203095
 30
0.0
 11
211.9954176376
 21
33.9852983706
 31
0.0
  0
LINE
  5
2F4
330
2BD
100
AcDbEntity
  8
0
  6
Continuous
 62
     7
100
AcDbLine
 10
191.7330673954
 20
38.177316993
 30
0.0
 11
192.2280419985
 21
38.6138435614
 31
0.0
  0
LINE
  5
2F5
330
2BD
100
AcDbEntity
  8
0
  6
Continuous
 62
     7
100
AcDbLine
 10
191.7330673954
 20
38.177316993
 30
0.0
 11
185.8038147779
 21
37.2851301597
 31
0.0
  0
LINE
  5
2F6
330
2BD
100
AcDbEntity
  8
0
  6
Continuous
 62
     7
100
AcDbLine
 10
185.8038147779
 20
37.2851301597
 30
0.0
 11
172.7080145839
 21
38.9350458985
 31
0.0
  0
LINE
  5
2F7
330
2BD
100
AcDbEntity
  8
0
  6
Continuous
 62
     7
100
AcDbLine
 10
174.8293349454
 20
40.8058746078
 30
0.0
 11
172.7080145839
 21
38.9350458985
 31
0.0
  0
LINE
  5
2F8
330
2BD
100
AcDbEntity
  8
0
  6
Continuous
 62
     7
100
AcDbLine
 10
192.2280419985
 20
38.6138435614
 30
0.0
 11
174.8293349454
 21
40.8058746078
 31
0.0
  0
LINE
  5
2F9
330
2BD
100
AcDbEntity
  8
0
  6
Continuous
 62
     7
100
AcDbLine
 10
202.3305169432
 20
37.3410513559
 30
0.0
 11
201.83554234
 21
36.9045247874
 31
0.0
  0
LINE
  5
2FA
330
2BD
100
AcDbEntity
  8
0
  6
Continuous
 62
     7
100
AcDbLine
 10
191.7330673954
 20
38.177316993
 30
0.0
 11
201.83554234
 21
36.9045247874
 31
0.0
  0
LINE
  5
2FB
330
2BD
100
AcDbEntity
  8
0
  6
Continuous
 62
     7
100
AcDbLine
 10
192.2280419985
 20
38.6138435614
 30
0.0
 11
202.3305169432
 21
37.3410513559
 31
0.0
  0
LINE
  5
2FC
330
2BD
100
AcDbEntity
  8
0
  6
Continuous
 62
     7
100
AcDbLine
 10
204.5121034408
 20
34.928107339
 30
0.0
 11
201.83554234
 21
36.9045247874
 31
0.0
  0
LINE
  5
2FD
330
2BD
100
AcDbEntity
  8
0
  6
Continuous
 62
     7
100
AcDbLine
 10
204.5121034408
 20
34.928107339
 30
0.0
 11
185.8038147779
 21
37.2851301597
 31
0.0
  0
LINE
  5
2FE
330
2BD
100
AcDbEntity
  8
0
  6
Continuous
 62
     7
100
AcDbLine
 10
219.7292239963
 20
35.1490203095
 30
0.0
 11
202.3305169432
 21
37.3410513559
 31
0.0
  0
LINE
  5
2FF
330
2BD
100
AcDbEntity
  8
0
  6
Continuous
 62
     7
100
AcDbLine
 10
217.6079036348
 20
33.2781916002
 30
0.0
 11
204.5121034408
 21
34.928107339
 31
0.0
  0
LINE
  5
300
330
2BD
100
AcDbEntity
  8
0
  6
Continuous
 62
     7
100
AcDbLine
 10
217.6079036348
 20
33.2781916002
 30
0.0
 11
219.7292239963
 21
35.1490203095
 31
0.0
  0
LINE
  5
301
330
2BD
100
AcDbEntity
  8
0
  6
Continuous
 62
     7
100
AcDbLine
 10
209.4232600281
 20
74.3256229399
 30
0.0
 11
213.6548086723
 21
76.643284502
 31
0.0
  0
LINE
  5
302
330
2BD
100
AcDbEntity
  8
0
  6
Continuous
 62
     7
100
AcDbLine
 10
213.6548086723
 20
76.643284502
 30
0.0
 11
210.8485656321
 21
76.9968378924
 31
0.0
  0
LINE
  5
303
330
2BD
100
AcDbEntity
  8
0
  6
Continuous
 62
     7
100
AcDbLine
 10
210.8485656321
 20
76.9968378924
 30
0.0
 11
209.4232600281
 21
74.3256229399
 31
0.0
  0
LINE
  5
304
330
2BD
100
AcDbEntity
  8
0
  6
Continuous
 62
     7
100
AcDbLine
 10
258.1191362309
 20
68.190519214
 30
0.0
 11
262.3506848751
 21
70.5081807762
 31
0.0
  0
LINE
  5
305
330
2BD
100
AcDbEntity
  8
0
  6
Continuous
 62
     7
100
AcDbLine
 10
262.3506848751
 20
70.5081807762
 30
0.0
 11
259.5444418349
 21
70.8617341666
 31
0.0
  0
LINE
  5
306
330
2BD
100
AcDbEntity
  8
0
  6
Continuous
 62
     7
100
AcDbLine
 10
259.5444418349
 20
70.8617341666
 30
0.0
 11
258.1191362309
 21
68.190519214
 31
0.0
  0
LWPOLYLINE
  5
307
330
2BD
100
AcDbEntity
  8
0
  6
Continuous
 62
     7
100
AcDbPolyline
 90
       61
 70
   128
 43
0.0
 10
209.8823306776
 20
81.2394291753
 10
210.4187332126
 20
80.58246172
 10
210.4187332126
 20
80.58246172
 10
210.3927674601
 20
80.5415969675
 10
210.3927674601
 20
80.5415969675
 10
209.8127189288
 20
80.0300422467
 10
209.8127189288
 20
80.0300422467
 10
209.750515615
 20
80.0039282585
 10
209.750515615
 20
80.0039282585
 10
208.285238103
 20
79.685383992
 10
208.285238103
 20
79.685383992
 10
208.7433465624
 20
79.1156886446
 10
208.7433465624
 20
79.1156886446
 10
208.7381807087
 20
79.0823886119
 10
208.7381807087
 20
79.0823886119
 10
208.1433109606
 20
78.5577628065
 10
208.1433109606
 20
78.5577628065
 10
208.0763918051
 20
78.5274898368
 10
208.0763918051
 20
78.5274898368
 10
206.3502045371
 20
78.1549028848
 10
206.3502045371
 20
78.1549028848
 10
206.2528028226
 20
78.1624212257
 10
206.2528028226
 20
78.1624212257
 10
202.958889498
 20
78.5774152968
 10
202.958889498
 20
78.5774152968
 10
202.9182170209
 20
78.5954408775
 10
202.8996495545
 20
78.6167926451
 10
202.9007309866
 20
78.6411010232
 10
202.9239174294
 20
78.6687355883
 10
202.9239174294
 20
78.6687355883
 10
202.9745561449
 20
78.6990226485
 10
203.0442819069
 20
78.7173987235
 10
203.0900356947
 20
78.7218195488
 10
203.1437892395
 20
78.7225164299
 10
203.2066512703
 20
78.7186706628
 10
203.2775130582
 20
78.7111009514
 10
203.2775130582
 20
78.7111009514
 10
204.0368242467
 20
78.6154367337
 10
204.0368242467
 20
78.6154367337
 10
207.2274280147
 20
81.4292847679
 10
207.2274280147
 20
81.4292847679
 10
206.3326528584
 20
81.5420158414
 10
206.3326528584
 20
81.5420158414
 10
206.2903943435
 20
81.5568461571
 10
206.2677847271
 20
81.5746330835
 10
206.2601504389
 20
81.5966444522
 10
206.2721650492
 20
81.6216124316
 10
206.2721650492
 20
81.6216124316
 10
206.3246284567
 20
81.6571017412
 10
206.3865931161
 20
81.6812087449
 10
206.4254558757
 20
81.6885348104
 10
206.4716447007
 20
81.6915427914
 10
206.5262683201
 20
81.6894139839
 10
206.5871092759
 20
81.6837857961
 10
206.5871092759
 20
81.6837857961
 10
206.6887072518
 20
81.6709856543
 10
206.6887072518
 20
81.6709856543
 10
209.7633828389
 20
81.2836129418
 10
209.7633828389
 20
81.2836129418
 10
209.8433108414
 20
81.2660737689
 10
209.8823550092
 20
81.2394261098
  0
LWPOLYLINE
  5
308
330
2BD
100
AcDbEntity
  8
0
  6
Continuous
 62
     7
100
AcDbPolyline
 90
       12
 70
   128
 43
0.0
 10
210.0094206731
 20
80.5484740625
 10
209.5338803102
 20
81.1386990926
 10
209.5338803102
 20
81.1386990926
 10
207.5696527757
 20
81.3861685008
 10
207.5696527757
 20
81.3861685008
 10
206.0174671588
 20
80.0172694572
 10
206.0174671588
 20
80.0172694572
 10
207.9727825902
 20
79.7709228684
 10
207.9727825902
 20
79.7709228684
 10
209.5095682849
 20
80.107618646
 10
209.5095682849
 20
80.107618646
 10
210.009447507
 20
80.5484706818
  0
LWPOLYLINE
  5
309
330
2BD
100
AcDbEntity
  8
0
  6
Continuous
 62
     7
100
AcDbPolyline
 90
       12
 70
   128
 43
0.0
 10
208.311043963
 20
79.0506465933
 10
207.8003175216
 20
79.6188229747
 10
207.8003175216
 20
79.6188229747
 10
205.8450020903
 20
79.8651695634
 10
205.8450020903
 20
79.8651695634
 10
204.3790490077
 20
78.5723204666
 10
204.3790490077
 20
78.5723204666
 10
206.3432765422
 20
78.3248510584
 10
206.3432765422
 20
78.3248510584
 10
207.8448761584
 20
78.6394981873
 10
207.8448761584
 20
78.6394981873
 10
208.3110707968
 20
79.0506432126
  0
LWPOLYLINE
  5
30A
330
2BD
100
AcDbEntity
  8
0
  6
Continuous
 62
     7
100
AcDbPolyline
 90
       61
 70
   128
 43
0.0
 10
274.4640791567
 20
73.8436835668
 10
275.000542204
 20
73.1867084876
 10
275.000542204
 20
73.1867084876
 10
274.9745764515
 20
73.1458437351
 10
274.9745764515
 20
73.1458437351
 10
274.3945279202
 20
72.6342890143
 10
274.3945279202
 20
72.6342890143
 10
274.3323246064
 20
72.6081750261
 10
274.3323246064
 20
72.6081750261
 10
272.8670470944
 20
72.2896307596
 10
272.8670470944
 20
72.2896307596
 10
273.3251555538
 20
71.7199354123
 10
273.3251555538
 20
71.7199354123
 10
273.3199897001
 20
71.6866353795
 10
273.3199897001
 20
71.6866353795
 10
272.725119952
 20
71.1620095742
 10
272.725119952
 20
71.1620095742
 10
272.6582007965
 20
71.1317366044
 10
272.6582007965
 20
71.1317366044
 10
270.9320135285
 20
70.7591496524
 10
270.9320135285
 20
70.7591496524
 10
270.834611814
 20
70.7666679933
 10
270.834611814
 20
70.7666679933
 10
267.5406984894
 20
71.1816620644
 10
267.5406984894
 20
71.1816620644
 10
267.5000260123
 20
71.1996876451
 10
267.4814585459
 20
71.2210394127
 10
267.482539978
 20
71.2453477909
 10
267.5057264208
 20
71.2729823559
 10
267.5057264208
 20
71.2729823559
 10
267.5563651363
 20
71.3032694161
 10
267.6260908983
 20
71.3216454911
 10
267.6718446861
 20
71.3260663164
 10
267.7255982308
 20
71.3267631976
 10
267.7884602617
 20
71.3229174304
 10
267.8593220496
 20
71.3153477191
 10
267.8593220496
 20
71.3153477191
 10
268.6186332381
 20
71.2196835014
 10
268.6186332381
 20
71.2196835014
 10
271.8092370061
 20
74.0335315356
 10
271.8092370061
 20
74.0335315356
 10
270.9144618498
 20
74.146262609
 10
270.9144618498
 20
74.146262609
 10
270.8722033349
 20
74.1610929248
 10
270.8495937185
 20
74.1788798511
 10
270.8419594303
 20
74.2008912199
 10
270.8539740406
 20
74.2258591992
 10
270.8539740406
 20
74.2258591992
 10
270.9064374481
 20
74.2613485089
 10
270.9684021075
 20
74.2854555126
 10
271.0072648671
 20
74.292781578
 10
271.0534536921
 20
74.295789559
 10
271.1080773115
 20
74.2936607515
 10
271.1689182673
 20
74.2880325637
 10
271.1689182673
 20
74.2880325637
 10
271.2705162432
 20
74.2752324219
 10
271.2705162432
 20
74.2752324219
 10
274.3451918303
 20
73.8878597095
 10
274.3451918303
 20
73.8878597095
 10
274.4251198328
 20
73.8703205365
 10
274.4641640006
 20
73.8436728775
  0
LWPOLYLINE
  5
30B
330
2BD
100
AcDbEntity
  8
0
  6
Continuous
 62
     7
100
AcDbPolyline
 90
       12
 70
   128
 43
0.0
 10
274.5911691523
 20
73.152728454
 10
274.1156893016
 20
73.7429458603
 10
274.1156893016
 20
73.7429458603
 10
272.1514617671
 20
73.9904152684
 10
272.1514617671
 20
73.9904152684
 10
270.5992761502
 20
72.6215162248
 10
270.5992761502
 20
72.6215162248
 10
272.5545915815
 20
72.375169636
 10
272.5545915815
 20
72.375169636
 10
274.0913772763
 20
72.7118654136
 10
274.0913772763
 20
72.7118654136
 10
274.5912564984
 20
73.1527174494
  0
LWPOLYLINE
  5
30C
330
2BD
100
AcDbEntity
  8
0
  6
Continuous
 62
     7
100
AcDbPolyline
 90
       12
 70
   128
 43
0.0
 10
272.8927924422
 20
71.6549009848
 10
272.382126513
 20
72.2230697423
 10
272.382126513
 20
72.2230697423
 10
270.4268110817
 20
72.469416331
 10
270.4268110817
 20
72.469416331
 10
268.9608579991
 20
71.1765672342
 10
268.9608579991
 20
71.1765672342
 10
270.9250855335
 20
70.9290978261
 10
270.9250855335
 20
70.9290978261
 10
272.4266851498
 20
71.2437449549
 10
272.4266851498
 20
71.2437449549
 10
272.8928797882
 20
71.6548899802
  0
LWPOLYLINE
  5
30D
330
2BD
100
AcDbEntity
  8
0
  6
Continuous
 62
     7
100
AcDbPolyline
 90
       61
 70
   128
 43
0.0
 10
179.4177816275
 20
51.024526232
 10
179.7932588693
 20
50.5646495844
 10
179.7932588693
 20
50.5646495844
 10
179.7750828425
 20
50.5360442576
 10
179.7750828425
 20
50.5360442576
 10
179.3690488706
 20
50.1779559531
 10
179.3690488706
 20
50.1779559531
 10
179.3255065509
 20
50.1596761613
 10
179.3255065509
 20
50.1596761613
 10
178.2998122925
 20
49.9366951748
 10
178.2998122925
 20
49.9366951748
 10
178.6204882141
 20
49.5379084316
 10
178.6204882141
 20
49.5379084316
 10
178.6168721166
 20
49.5145984087
 10
178.6168721166
 20
49.5145984087
 10
178.2004632929
 20
49.1473603449
 10
178.2004632929
 20
49.1473603449
 10
178.153619884
 20
49.1261692662
 10
178.153619884
 20
49.1261692662
 10
176.9452887964
 20
48.8653583998
 10
176.9452887964
 20
48.8653583998
 10
176.8771075963
 20
48.8706212384
 10
176.8771075963
 20
48.8706212384
 10
174.5713682691
 20
49.1611170881
 10
174.5713682691
 20
49.1611170881
 10
174.5428975351
 20
49.1737349946
 10
174.5299003086
 20
49.1886812319
 10
174.5306573111
 20
49.2056970966
 10
174.546887821
 20
49.2250412922
 10
174.546887821
 20
49.2250412922
 10
174.5823349218
 20
49.2462422343
 10
174.6311429553
 20
49.2591054868
 10
174.6631706067
 20
49.2622000645
 10
174.7007980881
 20
49.2626878813
 10
174.7448015097
 20
49.2599958443
 10
174.7944047612
 20
49.2546970464
 10
174.7944047612
 20
49.2546970464
 10
175.3259225931
 20
49.187732094
 10
175.3259225931
 20
49.187732094
 10
177.5593452308
 20
51.1574257179
 10
177.5593452308
 20
51.1574257179
 10
176.9330026213
 20
51.2363374693
 10
176.9330026213
 20
51.2363374693
 10
176.9034216609
 20
51.2467186904
 10
176.8875949294
 20
51.2591695388
 10
176.8822509277
 20
51.274577497
 10
176.8906611549
 20
51.2920550825
 10
176.8906611549
 20
51.2920550825
 10
176.9273855402
 20
51.3168975992
 10
176.9707608017
 20
51.3337725018
 10
176.9979647334
 20
51.3389007476
 10
177.0302969109
 20
51.3410063343
 10
177.0685334445
 20
51.3395161691
 10
177.1111221136
 20
51.3355764376
 10
177.1111221136
 20
51.3355764376
 10
177.1822406967
 20
51.3266163384
 10
177.1822406967
 20
51.3266163384
 10
179.3345136077
 20
51.0554554397
 10
179.3345136077
 20
51.0554554397
 10
179.3904632094
 20
51.0431780186
 10
179.4177941269
 20
51.0245246573
  0
LWPOLYLINE
  5
30E
330
2BD
100
AcDbEntity
  8
0
  6
Continuous
 62
     7
100
AcDbPolyline
 90
       12
 70
   128
 43
0.0
 10
179.5067446244
 20
50.5408576531
 10
179.1738618376
 20
50.9540157452
 10
179.1738618376
 20
50.9540157452
 10
177.7989025634
 20
51.1272443309
 10
177.7989025634
 20
51.1272443309
 10
176.7123726316
 20
50.1690150004
 10
176.7123726316
 20
50.1690150004
 10
178.0810934336
 20
49.9965723883
 10
178.0810934336
 20
49.9965723883
 10
179.1568434198
 20
50.2322594326
 10
179.1568434198
 20
50.2322594326
 10
179.5067588753
 20
50.5408558576
  0
LWPOLYLINE
  5
30F
330
2BD
100
AcDbEntity
  8
0
  6
Continuous
 62
     7
100
AcDbPolyline
 90
       12
 70
   128
 43
0.0
 10
178.3178809273
 20
49.4923784246
 10
177.9603678856
 20
49.8901024627
 10
177.9603678856
 20
49.8901024627
 10
176.5916470837
 20
50.0625450748
 10
176.5916470837
 20
50.0625450748
 10
175.5654799258
 20
49.157550707
 10
175.5654799258
 20
49.157550707
 10
176.9404392
 20
48.9843221213
 10
176.9404392
 20
48.9843221213
 10
177.9915589313
 20
49.2045751115
 10
177.9915589313
 20
49.2045751115
 10
178.3178951782
 20
49.4923766292
  0
LWPOLYLINE
  5
310
330
2BD
100
AcDbEntity
  8
0
  6
Continuous
 62
     7
100
AcDbPolyline
 90
       29
 70
   128
 43
0.0
 10
183.3553236456
 20
49.3625018198
 10
183.3929515558
 20
49.341600535
 10
183.4010067023
 20
49.3134928884
 10
183.4010067023
 20
49.3134928884
 10
183.3923215391
 20
49.3008030632
 10
183.3747058667
 20
49.2840099426
 10
183.3747058667
 20
49.2840099426
 10
183.3499085537
 20
49.2671709993
 10
183.3126047063
 20
49.248105234
 10
183.2875620473
 20
49.2398528204
 10
183.2548957536
 20
49.2349374554
 10
183.2141342411
 20
49.2329432407
 10
183.165749094
 20
49.2342860746
 10
183.165749094
 20
49.2342860746
 10
180.2062178796
 20
49.6071519596
 10
180.2062178796
 20
49.6071519596
 10
180.167353186
 20
49.6282090645
 10
180.1543072617
 20
49.65694549
 10
180.1543072617
 20
49.65694549
 10
180.1639355933
 20
49.6704671115
 10
180.1843807707
 20
49.689755621
 10
180.1843807707
 20
49.689755621
 10
180.2295640811
 20
49.718285535
 10
180.2868310396
 20
49.7348361848
 10
180.2868310396
 20
49.7348361848
 10
180.3201063854
 20
49.7377735678
 10
180.369601759
 20
49.7386674194
 10
180.369601759
 20
49.7386674194
 10
183.3553345566
 20
49.3625004451
  0
LWPOLYLINE
  5
311
330
2BD
100
AcDbEntity
  8
0
  6
Continuous
 62
     7
100
AcDbPolyline
 90
       61
 70
   128
 43
0.0
 10
188.3612245504
 20
49.8977583355
 10
188.7367326233
 20
49.4378778035
 10
188.7367326233
 20
49.4378778035
 10
188.7185565965
 20
49.4092724767
 10
188.7185565965
 20
49.4092724767
 10
188.3125226246
 20
49.0511841722
 10
188.3125226246
 20
49.0511841722
 10
188.268980305
 20
49.0329043804
 10
188.268980305
 20
49.0329043804
 10
187.2432860466
 20
48.8099233939
 10
187.2432860466
 20
48.8099233939
 10
187.5639619681
 20
48.4111366508
 10
187.5639619681
 20
48.4111366508
 10
187.5603458706
 20
48.3878266278
 10
187.5603458706
 20
48.3878266278
 10
187.1439370469
 20
48.0205885641
 10
187.1439370469
 20
48.0205885641
 10
187.0970936381
 20
47.9993974853
 10
187.0970936381
 20
47.9993974853
 10
185.8887625505
 20
47.7385866189
 10
185.8887625505
 20
47.7385866189
 10
185.8205813503
 20
47.7438494575
 10
185.8205813503
 20
47.7438494575
 10
183.5148420231
 20
48.0343453072
 10
183.5148420231
 20
48.0343453072
 10
183.4863712891
 20
48.0469632138
 10
183.4733740627
 20
48.0619094511
 10
183.4741310651
 20
48.0789253158
 10
183.4903615751
 20
48.0982695113
 10
183.4903615751
 20
48.0982695113
 10
183.5258086759
 20
48.1194704534
 10
183.5746167094
 20
48.1323337059
 10
183.6066443608
 20
48.1354282837
 10
183.6442718421
 20
48.1359161004
 10
183.6882752637
 20
48.1332240634
 10
183.7378785152
 20
48.1279252655
 10
183.7378785152
 20
48.1279252655
 10
184.2693963472
 20
48.0609603131
 10
184.2693963472
 20
48.0609603131
 10
186.5028189848
 20
50.0306539371
 10
186.5028189848
 20
50.0306539371
 10
185.8764763753
 20
50.1095656885
 10
185.8764763753
 20
50.1095656885
 10
185.846895415
 20
50.1199469095
 10
185.8310686835
 20
50.1323977579
 10
185.8257246817
 20
50.1478057161
 10
185.8341349089
 20
50.1652833016
 10
185.8341349089
 20
50.1652833016
 10
185.8708592942
 20
50.1901258184
 10
185.9142345558
 20
50.207000721
 10
185.9414384875
 20
50.2121289668
 10
185.973770665
 20
50.2142345535
 10
186.0120071985
 20
50.2127443882
 10
186.0545958676
 20
50.2088046568
 10
186.0545958676
 20
50.2088046568
 10
186.1257144508
 20
50.1998445575
 10
186.1257144508
 20
50.1998445575
 10
188.2779873617
 20
49.9286836588
 10
188.2779873617
 20
49.9286836588
 10
188.3339369634
 20
49.9164062377
 10
188.3612678809
 20
49.8977528764
  0
LWPOLYLINE
  5
312
330
2BD
100
AcDbEntity
  8
0
  6
Continuous
 62
     7
100
AcDbPolyline
 90
       12
 70
   128
 43
0.0
 10
188.4501875473
 20
49.4140897566
 10
188.1173355916
 20
49.8272439643
 10
188.1173355916
 20
49.8272439643
 10
186.7423763175
 20
50.0004725501
 10
186.7423763175
 20
50.0004725501
 10
185.6558463857
 20
49.0422432195
 10
185.6558463857
 20
49.0422432195
 10
187.0245671876
 20
48.8698006074
 10
187.0245671876
 20
48.8698006074
 10
188.1003171739
 20
49.1054876517
 10
188.1003171739
 20
49.1054876517
 10
188.4502326294
 20
49.4140840767
  0
LWPOLYLINE
  5
313
330
2BD
100
AcDbEntity
  8
0
  6
Continuous
 62
     7
100
AcDbPolyline
 90
       12
 70
   128
 43
0.0
 10
187.2613238502
 20
48.3656105281
 10
186.9038416396
 20
48.7633306818
 10
186.9038416396
 20
48.7633306818
 10
185.5351208377
 20
48.9357732939
 10
185.5351208377
 20
48.9357732939
 10
184.5089536799
 20
48.0307789261
 10
184.5089536799
 20
48.0307789261
 10
185.883912954
 20
47.8575503404
 10
185.883912954
 20
47.8575503404
 10
186.9350326854
 20
48.0778033306
 10
186.9350326854
 20
48.0778033306
 10
187.2613689323
 20
48.3656048483
  0
POINT
  5
314
330
2BD
100
AcDbEntity
  8
0
  6
Continuous
 62
     7
100
AcDbPoint
 10
298.0766354694
 20
133.0006185333
 30
0.0
  0
POINT
  5
315
330
2BD
100
AcDbEntity
  8
0
  6
Continuous
 62
     7
100
AcDbPoint
 10
282.5202863712
 20
119.2812081924
 30
0.0
  0
POINT
  5
316
330
2BD
100
AcDbEntity
  8
0
  6
Continuous
 62
     7
100
AcDbPoint
 10
291.7015822727
 20
125.9641366888
 30
0.0
  0
POINT
  5
317
330
2BD
100
AcDbEntity
  8
0
  6
Continuous
 62
     7
100
AcDbPoint
 10
302.9265536598
 20
124.5499232245
 30
0.0
  0
POINT
  5
318
330
2BD
100
AcDbEntity
  8
0
  6
Continuous
 62
     7
100
AcDbPoint
 10
296.5515021296
 20
117.51344117
 30
0.0
  0
POINT
  5
319
330
2BD
100
AcDbEntity
  8
0
  6
Continuous
 62
     7
100
AcDbPoint
 10
257.598747086
 20
94.8040321064
 30
0.0
  0
POINT
  5
31A
330
2BD
100
AcDbEntity
  8
0
  6
Continuous
 62
     7
100
AcDbPoint
 10
266.6722662492
 20
93.660876144
 30
0.0
  0
POINT
  5
31B
330
2BD
100
AcDbEntity
  8
0
  6
Continuous
 62
     7
100
AcDbPoint
 10
192.2280419985
 20
38.6138435614
 30
0.0
  0
POINT
  5
31C
330
2BD
100
AcDbEntity
  8
0
  6
Continuous
 62
     7
100
AcDbPoint
 10
202.3305169432
 20
37.3410513559
 30
0.0
  0
POINT
  5
31D
330
2BD
100
AcDbEntity
  8
0
  6
Continuous
 62
     7
100
AcDbPoint
 10
204.5121034408
 20
34.928107339
 30
0.0
  0
VIEWPORT
  5
330
330
2BD
100
AcDbEntity
  8
0
100
AcDbViewport
 10
0.0
 20
0.0
 30
0.0
 40
205.6
 41
156.0
 68
     1
 69
     1
 12
143.0047148344
 22
342.9703857442
 13
0.0
 23
0.0
 14
10.0
 24
10.0
 15
10.0
 25
10.0
 16
0.0
 26
0.0
 36
1.0
 17
0.0
 27
0.0
 37
0.0
 42
50.0
 43
0.0
 44
0.0
 45
352.2012672449
 50
0.0
 51
0.0
 72
   100
 90
   557152
  1

281
     0
 71
     1
 74
     0
110
0.0
120
0.0
130
0.0
111
1.0
121
0.0
131
0.0
112
0.0
122
1.0
132
0.0
 79
     0
146
0.0
170
     0
 61
     5
348
2F
292
     1
282
     1
141
0.0
142
0.0
 63
   256
361
331
  0
ENDBLK
  5
2C0
330
2BD
100
AcDbEntity
  8
0
100
AcDbBlockEnd
  0
ENDSEC
  0
SECTION
  2
ENTITIES
  0
ARC
  5
73
330
1F
100
AcDbEntity
  8
0
  6
Continuous
 62
     7
100
AcDbCircle
 10
251.2567013335
 20
456.618055239
 30
0.0
 40
100.0000000000001
100
AcDbArc
 50
170.0636276075
 51
189.9363664771
  0
ARC
  5
74
330
1F
100
AcDbEntity
  8
0
  6
Continuous
 62
     7
100
AcDbCircle
 10
150.7567025251
 20
476.6180648786
 30
0.0
 40
2.000000410711763
100
AcDbArc
 50
0.0000023752
 51
89.999988234
  0
ARC
  5
75
330
1F
100
AcDbEntity
  8
0
  6
Continuous
 62
     7
100
AcDbCircle
 10
139.7567023397
 20
476.6180652893
 30
0.0
 40
2.000000000000055
100
AcDbArc
 50
90.0
 51
180.0000093908
  0
ARC
  5
76
330
1F
100
AcDbEntity
  8
0
  6
Continuous
 62
     7
100
AcDbCircle
 10
39.2567021605
 20
456.6180654085
 30
0.0
 40
100.0
100
AcDbArc
 50
350.0636335229
 51
9.9363664771
  0
ARC
  5
77
330
1F
100
AcDbEntity
  8
0
  6
Continuous
 62
     7
100
AcDbCircle
 10
139.7567023397
 20
436.6180655278
 30
0.0
 40
2.000000000000044
100
AcDbArc
 50
180.0000973312
 51
270.0
  0
ARC
  5
78
330
1F
100
AcDbEntity
  8
0
  6
Continuous
 62
     7
100
AcDbCircle
 10
150.7567013512
 20
436.6180653309
 30
0.0
 40
1.9999998031367
100
AcDbArc
 50
270.0000453958
 51
359.9996169731
  0
ARC
  5
79
330
1F
100
AcDbEntity
  8
0
  6
Continuous
 62
     7
100
AcDbCircle
 10
141.2567021605
 20
377.1180648125
 30
0.0
 40
1.99999999999973
100
AcDbArc
 50
90.0
 51
180.0001161128
  0
ARC
  5
7A
330
1F
100
AcDbEntity
  8
0
  6
Continuous
 62
     7
100
AcDbCircle
 10
40.4067020555
 20
357.1180649317
 30
0.0
 40
100.0
100
AcDbArc
 50
351.3023163072
 51
8.6976836928
  0
ARC
  5
7B
330
1F
100
AcDbEntity
  8
0
  6
Continuous
 62
     7
100
AcDbCircle
 10
141.2567021605
 20
337.1180650509
 30
0.0
 40
1.999999999999702
100
AcDbArc
 50
179.9998838872
 51
270.0
  0
ARC
  5
7C
330
1F
100
AcDbEntity
  8
0
  6
Continuous
 62
     7
100
AcDbCircle
 10
149.2567010944
 20
337.1180652899
 30
0.0
 40
2.000000239049113
100
AcDbArc
 50
270.0000068483
 51
0.0001092645
  0
ARC
  5
7D
330
1F
100
AcDbEntity
  8
0
  6
Continuous
 62
     7
100
AcDbCircle
 10
250.1067014385
 20
357.1180649317
 30
0.0
 40
100.0000000000001
100
AcDbArc
 50
171.3023163072
 51
188.6976836928
  0
ARC
  5
7E
330
1F
100
AcDbEntity
  8
0
  6
Continuous
 62
     7
100
AcDbCircle
 10
149.2567004748
 20
377.1180639538
 30
0.0
 40
2.000000858696481
100
AcDbArc
 50
359.9999084871
 51
89.9999754001
  0
CIRCLE
  5
7F
330
1F
100
AcDbEntity
  8
0
  6
Continuous
 62
     7
100
AcDbCircle
 10
145.2567026377
 20
282.6180657662
 30
0.0
 40
4.999999999999996
  0
CIRCLE
  5
80
330
1F
100
AcDbEntity
  8
0
  6
Continuous
 62
     7
100
AcDbCircle
 10
145.2567026377
 20
503.6180657662
 30
0.0
 40
5.000000000000007
  0
CIRCLE
  5
81
330
1F
100
AcDbEntity
  8
0
  6
Continuous
 62
     7
100
AcDbCircle
 10
145.2567026377
 20
282.6180657662
 30
0.0
 40
2.700000000000064
  0
CIRCLE
  5
82
330
1F
100
AcDbEntity
  8
0
  6
Continuous
 62
     7
100
AcDbCircle
 10
145.2567026377
 20
503.6180657662
 30
0.0
 40
2.700000000000031
  0
ARC
  5
83
330
1F
100
AcDbEntity
  8
0
  6
CENTERX2
 62
     7
100
AcDbCircle
 10
149.2567004748
 20
377.1180639538
 30
0.0
 40
2.00000085869647
100
AcDbArc
 50
330.8994577059
 51
60.8994450871
  0
ARC
  5
84
330
1F
100
AcDbEntity
  8
0
  6
CENTERX2
 62
     7
100
AcDbCircle
 10
149.2567010944
 20
337.1180652899
 30
0.0
 40
2.000000239049107
100
AcDbArc
 50
285.2983033348
 51
15.298315857
  0
ARC
  5
85
330
1F
100
AcDbEntity
  8
0
  6
CENTERX2
 62
     7
100
AcDbCircle
 10
150.7567013512
 20
436.6180653309
 30
0.0
 40
1.999999803136686
100
AcDbArc
 50
269.2454273241
 51
359.2454397187
  0
ARC
  5
86
330
1F
100
AcDbEntity
  8
0
  6
CENTERX2
 62
     7
100
AcDbCircle
 10
150.7567025251
 20
476.6180648786
 30
0.0
 40
2.000000410711662
100
AcDbArc
 50
345.0538863447
 51
75.0538834609
  0
LINE
  5
87
330
1F
100
AcDbEntity
  8
0
  6
Continuous
 62
     7
100
AcDbLine
 10
152.7567029358
 20
473.8734983123
 30
0.0
 11
152.7567029358
 21
476.6180649615
 31
0.0
  0
LINE
  5
88
330
1F
100
AcDbEntity
  8
0
  6
Continuous
 62
     7
100
AcDbLine
 10
150.7567029358
 20
478.6180652893
 30
0.0
 11
139.7567023397
 21
478.6180652893
 31
0.0
  0
LINE
  5
89
330
1F
100
AcDbEntity
  8
0
  6
Continuous
 62
     7
100
AcDbLine
 10
137.7567023397
 20
476.6180649615
 30
0.0
 11
137.7567023397
 21
473.8734983123
 31
0.0
  0
LINE
  5
8A
330
1F
100
AcDbEntity
  8
0
  6
Continuous
 62
     7
100
AcDbLine
 10
137.7567023397
 20
439.3626325048
 30
0.0
 11
137.7567023397
 21
436.6180621303
 31
0.0
  0
LINE
  5
8B
330
1F
100
AcDbEntity
  8
0
  6
Continuous
 62
     7
100
AcDbLine
 10
139.7567023397
 20
434.6180655278
 30
0.0
 11
150.7567029358
 21
434.6180655278
 31
0.0
  0
LINE
  5
8C
330
1F
100
AcDbEntity
  8
0
  6
Continuous
 62
     7
100
AcDbLine
 10
152.7567011543
 20
436.6180519608
 30
0.0
 11
152.7567011543
 21
439.3626223353
 31
0.0
  0
LINE
  5
8D
330
1F
100
AcDbEntity
  8
0
  6
Continuous
 62
     7
100
AcDbLine
 10
149.2567013335
 20
379.1180648125
 30
0.0
 11
141.2567021605
 21
379.1180648125
 31
0.0
  0
LINE
  5
8E
330
1F
100
AcDbEntity
  8
0
  6
Continuous
 62
     7
100
AcDbLine
 10
139.2567021605
 20
377.1180607594
 30
0.0
 11
139.2567021605
 21
372.2401507414
 31
0.0
  0
LINE
  5
8F
330
1F
100
AcDbEntity
  8
0
  6
Continuous
 62
     7
100
AcDbLine
 10
139.2567021605
 20
341.995979122
 30
0.0
 11
139.2567021605
 21
337.118069104
 31
0.0
  0
LINE
  5
90
330
1F
100
AcDbEntity
  8
0
  6
Continuous
 62
     7
100
AcDbLine
 10
141.2567021605
 20
335.1180650509
 30
0.0
 11
149.2567013335
 21
335.1180650509
 31
0.0
  0
LINE
  5
91
330
1F
100
AcDbEntity
  8
0
  6
Continuous
 62
     7
100
AcDbLine
 10
151.2567013335
 20
337.118069104
 30
0.0
 11
151.2567013335
 21
341.995979122
 31
0.0
  0
LINE
  5
92
330
1F
100
AcDbEntity
  8
0
  6
Continuous
 62
     7
100
AcDbLine
 10
151.2567013335
 20
372.2401507414
 30
0.0
 11
151.2567013335
 21
377.1180607594
 31
0.0
  0
LINE
  5
93
330
1F
100
AcDbEntity
  8
0
  6
Continuous
 62
     7
100
AcDbLine
 10
133.2567025334
 20
270.6180609978
 30
0.0
 11
157.2567027421
 21
270.6180609978
 31
0.0
  0
LINE
  5
94
330
1F
100
AcDbEntity
  8
0
  6
Continuous
 62
     7
100
AcDbLine
 10
133.2567025334
 20
515.6180657662
 30
0.0
 11
133.2567025334
 21
270.6180609978
 31
0.0
  0
LINE
  5
95
330
1F
100
AcDbEntity
  8
0
  6
Continuous
 62
     7
100
AcDbLine
 10
157.2567027421
 20
515.6180657662
 30
0.0
 11
133.2567025334
 21
515.6180657662
 31
0.0
  0
LINE
  5
96
330
1F
100
AcDbEntity
  8
0
  6
Continuous
 62
     7
100
AcDbLine
 10
157.2567027421
 20
270.6180609978
 30
0.0
 11
157.2567027421
 21
515.6180657662
 31
0.0
  0
LINE
  5
97
330
1F
100
AcDbEntity
  8
0
  6
CENTERX2
 62
     7
100
AcDbLine
 10
126.8893128057
 20
357.1180657662
 30
0.0
 11
156.0782639407
 21
357.1180657662
 31
0.0
  0
LINE
  5
98
330
1F
100
AcDbEntity
  8
0
  6
CENTERX2
 62
     7
100
AcDbLine
 10
164.3546372779
 20
456.6180657662
 30
0.0
 11
121.3992571575
 21
456.6180657662
 31
0.0
  0
LINE
  5
99
330
1F
100
AcDbEntity
  8
0
  6
CENTERX2
 62
     7
100
AcDbLine
 10
145.2567026377
 20
515.6180657662
 30
0.0
 11
145.2567026377
 21
270.6180609978
 31
0.0
  0
LINE
  5
9A
330
1F
100
AcDbEntity
  8
0
  6
CENTERX2
 62
     7
100
AcDbLine
 10
145.2567026377
 20
287.6180657662
 30
0.0
 11
145.2567026377
 21
277.6180657662
 31
0.0
  0
LINE
  5
9B
330
1F
100
AcDbEntity
  8
0
  6
CENTERX2
 62
     7
100
AcDbLine
 10
150.2567026377
 20
282.6180657662
 30
0.0
 11
140.2567026377
 21
282.6180657662
 31
0.0
  0
LINE
  5
9C
330
1F
100
AcDbEntity
  8
0
  6
CENTERX2
 62
     7
100
AcDbLine
 10
145.2567026377
 20
508.6180657662
 30
0.0
 11
145.2567026377
 21
498.6180657662
 31
0.0
  0
LINE
  5
9D
330
1F
100
AcDbEntity
  8
0
  6
CENTERX2
 62
     7
100
AcDbLine
 10
150.2567026377
 20
503.6180657662
 30
0.0
 11
140.2567026377
 21
503.6180657662
 31
0.0
  0
LINE
  5
9E
330
1F
100
AcDbEntity
  8
0
  6
CENTERX2
 62
     7
100
AcDbLine
 10
113.0632939723
 20
282.6180657662
 30
0.0
 11
173.1213753705
 21
282.6180657662
 31
0.0
  0
LINE
  5
9F
330
1F
100
AcDbEntity
  8
0
  6
Continuous
 62
     7
100
AcDbLine
 10
117.0632939723
 20
297.6180657662
 30
0.0
 11
117.0632939723
 21
282.6180657662
 31
0.0
  0
LINE
  5
A0
330
1F
100
AcDbEntity
  8
0
  6
Continuous
 62
     7
100
AcDbLine
 10
169.1213753705
 20
297.6180657662
 30
0.0
 11
169.1213753705
 21
282.6180657662
 31
0.0
  0
LINE
  5
A1
330
1F
100
AcDbEntity
  8
0
  6
Continuous
 62
     7
100
AcDbLine
 10
123.3554211468
 20
176.3227057743
 30
0.0
 11
120.2567021647
 21
173.2239865784
 31
0.0
  0
LINE
  5
A2
330
1F
100
AcDbEntity
  8
0
  6
Continuous
 62
     7
100
AcDbLine
 10
132.3356793737
 20
176.3227057743
 30
0.0
 11
126.3356794626
 21
170.3227057221
 31
0.0
  0
LINE
  5
A3
330
1F
100
AcDbEntity
  8
0
  6
Continuous
 62
     7
100
AcDbLine
 10
150.2961897314
 20
176.3227057743
 30
0.0
 11
149.6567023829
 21
175.6832181096
 31
0.0
  0
LINE
  5
A4
330
1F
100
AcDbEntity
  8
0
  6
Continuous
 62
     7
100
AcDbLine
 10
159.2764462368
 20
176.3227057743
 30
0.0
 11
153.7665747209
 21
170.8128342584
 31
0.0
  0
LINE
  5
A5
330
1F
100
AcDbEntity
  8
0
  6
Continuous
 62
     7
100
AcDbLine
 10
168.256702601
 20
176.3227057743
 30
0.0
 11
162.2567026899
 21
170.3227057221
 31
0.0
  0
LINE
  5
A6
330
1F
100
AcDbEntity
  8
0
  6
Continuous
 62
     7
100
AcDbLine
 10
138.8567023829
 20
174.9227061804
 30
0.0
 11
138.8567023829
 21
176.3227057743
 31
0.0
  0
LINE
  5
A7
330
1F
100
AcDbEntity
  8
0
  6
Continuous
 62
     7
100
AcDbLine
 10
138.8567023829
 20
174.9227061804
 30
0.0
 11
134.256701459
 21
170.3227057221
 31
0.0
  0
LINE
  5
A8
330
1F
100
AcDbEntity
  8
0
  6
Continuous
 62
     7
100
AcDbLine
 10
134.256701459
 20
170.3227057221
 30
0.0
 11
120.2567021647
 21
170.3227057221
 31
0.0
  0
LINE
  5
A9
330
1F
100
AcDbEntity
  8
0
  6
Continuous
 62
     7
100
AcDbLine
 10
120.2567021647
 20
176.3227057743
 30
0.0
 11
120.2567021647
 21
170.3227057221
 31
0.0
  0
LINE
  5
AA
330
1F
100
AcDbEntity
  8
0
  6
Continuous
 62
     7
100
AcDbLine
 10
138.8567023829
 20
176.3227057743
 30
0.0
 11
120.2567021647
 21
176.3227057743
 31
0.0
  0
LINE
  5
AB
330
1F
100
AcDbEntity
  8
0
  6
Continuous
 62
     7
100
AcDbLine
 10
149.6567023829
 20
176.3227057743
 30
0.0
 11
149.6567023829
 21
174.9227061804
 31
0.0
  0
LINE
  5
AC
330
1F
100
AcDbEntity
  8
0
  6
Continuous
 62
     7
100
AcDbLine
 10
138.8567023829
 20
174.9227061804
 30
0.0
 11
149.6567023829
 21
174.9227061804
 31
0.0
  0
LINE
  5
AD
330
1F
100
AcDbEntity
  8
0
  6
Continuous
 62
     7
100
AcDbLine
 10
138.8567023829
 20
176.3227057743
 30
0.0
 11
149.6567023829
 21
176.3227057743
 31
0.0
  0
LINE
  5
AE
330
1F
100
AcDbEntity
  8
0
  6
Continuous
 62
     7
100
AcDbLine
 10
154.2567033068
 20
170.3227057221
 30
0.0
 11
149.6567023829
 21
174.9227061804
 31
0.0
  0
LINE
  5
AF
330
1F
100
AcDbEntity
  8
0
  6
Continuous
 62
     7
100
AcDbLine
 10
154.2567033068
 20
170.3227057221
 30
0.0
 11
134.256701459
 21
170.3227057221
 31
0.0
  0
LINE
  5
B0
330
1F
100
AcDbEntity
  8
0
  6
Continuous
 62
     7
100
AcDbLine
 10
168.256702601
 20
176.3227057743
 30
0.0
 11
149.6567023829
 21
176.3227057743
 31
0.0
  0
LINE
  5
B1
330
1F
100
AcDbEntity
  8
0
  6
Continuous
 62
     7
100
AcDbLine
 10
168.256702601
 20
170.3227057221
 30
0.0
 11
154.2567033068
 21
170.3227057221
 31
0.0
  0
LINE
  5
B2
330
1F
100
AcDbEntity
  8
0
  6
Continuous
 62
     7
100
AcDbLine
 10
168.256702601
 20
170.3227057221
 30
0.0
 11
168.256702601
 21
176.3227057743
 31
0.0
  0
LINE
  5
B3
330
1F
100
AcDbEntity
  8
0
  6
Continuous
 62
     7
100
AcDbLine
 10
117.0632939723
 20
282.6180657662
 30
0.0
 11
118.5632939723
 21
290.6180657662
 31
0.0
  0
LINE
  5
B4
330
1F
100
AcDbEntity
  8
0
  6
Continuous
 62
     7
100
AcDbLine
 10
118.5632939723
 20
290.6180657662
 30
0.0
 11
115.5632939723
 21
290.6180657662
 31
0.0
  0
LINE
  5
B5
330
1F
100
AcDbEntity
  8
0
  6
Continuous
 62
     7
100
AcDbLine
 10
115.5632939723
 20
290.6180657662
 30
0.0
 11
117.0632939723
 21
282.6180657662
 31
0.0
  0
LINE
  5
B6
330
1F
100
AcDbEntity
  8
0
  6
Continuous
 62
     7
100
AcDbLine
 10
169.1213753705
 20
282.6180657662
 30
0.0
 11
170.6213753705
 21
290.6180657662
 31
0.0
  0
LINE
  5
B7
330
1F
100
AcDbEntity
  8
0
  6
Continuous
 62
     7
100
AcDbLine
 10
170.6213753705
 20
290.6180657662
 30
0.0
 11
167.6213753705
 21
290.6180657662
 31
0.0
  0
LINE
  5
B8
330
1F
100
AcDbEntity
  8
0
  6
Continuous
 62
     7
100
AcDbLine
 10
167.6213753705
 20
290.6180657662
 30
0.0
 11
169.1213753705
 21
282.6180657662
 31
0.0
  0
LWPOLYLINE
  5
B9
330
1F
100
AcDbEntity
  8
0
  6
Continuous
 62
     7
100
AcDbPolyline
 90
       61
 70
   128
 43
0.0
 10
110.1595163345
 20
302.1821923848
 10
111.3580941755
 20
300.5282289701
 10
111.3580941755
 20
300.5282289701
 10
111.3771490535
 20
300.4043722628
 10
111.3771490535
 20
300.4043722628
 10
111.3771490535
 20
298.7637472628
 10
111.3771490535
 20
298.7637472628
 10
111.3466612486
 20
298.6684728726
 10
111.3466612486
 20
298.6684728726
 10
110.3138868584
 20
297.2565064092
 10
110.3138868584
 20
297.2565064092
 10
111.3466612486
 20
295.8197686043
 10
111.3466612486
 20
295.8197686043
 10
111.3771490535
 20
295.724494214
 10
111.3771490535
 20
295.724494214
 10
111.3771490535
 20
294.0419484823
 10
111.3771490535
 20
294.0419484823
 10
111.3466612486
 20
293.9333356775
 10
111.3466612486
 20
293.9333356775
 10
110.1271490535
 20
292.277466775
 10
110.1271490535
 20
292.277466775
 10
110.0280636876
 20
292.2641283604
 10
110.0280636876
 20
292.2641283604
 10
106.5067222242
 20
292.2641283604
 10
106.5067222242
 20
292.2641283604
 10
106.4495575901
 20
292.3003326287
 10
106.4095423462
 20
292.3536862872
 10
106.3847710047
 20
292.4222838482
 10
106.3771490535
 20
292.5080307994
 10
106.3771490535
 20
292.5080307994
 10
106.3923929559
 20
292.6109271409
 10
106.4381246633
 20
292.6871466531
 10
106.4762344194
 20
292.7157289701
 10
106.5257771023
 20
292.736689336
 10
106.5886581998
 20
292.7481222628
 10
106.6629722242
 20
292.7519332384
 10
106.6629722242
 20
292.7519332384
 10
107.4747100291
 20
292.7519332384
 10
107.4747100291
 20
292.7519332384
 10
107.4747100291
 20
301.7763234823
 10
107.4747100291
 20
301.7763234823
 10
106.5181551511
 20
301.7763234823
 10
106.5181551511
 20
301.7763234823
 10
106.4628960047
 20
301.8030003116
 10
106.4228807608
 20
301.8449210433
 10
106.3923929559
 20
301.9039911653
 10
106.3771490535
 20
301.9783051897
 10
106.3771490535
 20
301.9783051897
 10
106.3885819803
 20
302.0964454336
 10
106.420975273
 20
302.1860033604
 10
106.4495575901
 20
302.2203021409
 10
106.489572834
 20
302.2450734823
 10
106.5429264925
 20
302.258411897
 10
106.6058075901
 20
302.2641283604
 10
106.6058075901
 20
302.2641283604
 10
106.714420395
 20
302.2641283604
 10
106.714420395
 20
302.2641283604
 10
110.0013868584
 20
302.2641283604
 10
110.0013868584
 20
302.2641283604
 10
110.0947557608
 20
302.2431679945
 10
110.1595423462
 20
302.1821923848
  0
LWPOLYLINE
  5
BA
330
1F
100
AcDbEntity
  8
0
  6
Continuous
 62
     7
100
AcDbPolyline
 90
       12
 70
   128
 43
0.0
 10
111.0112667084
 20
300.2881375067
 10
109.9404112486
 20
301.7763234823
 10
109.9404112486
 20
301.7763234823
 10
107.8405636876
 20
301.7763234823
 10
107.8405636876
 20
301.7763234823
 10
107.8405636876
 20
297.3860795799
 10
107.8405636876
 20
297.3860795799
 10
109.9308838096
 20
297.3860795799
 10
109.9308838096
 20
297.3860795799
 10
111.011295395
 20
298.8742655555
 10
111.011295395
 20
298.8742655555
 10
111.011295395
 20
300.2881375067
  0
LWPOLYLINE
  5
BB
330
1F
100
AcDbEntity
  8
0
  6
Continuous
 62
     7
100
AcDbPolyline
 90
       12
 70
   128
 43
0.0
 10
111.0112667084
 20
295.4844027506
 10
109.9308838096
 20
296.8982747019
 10
109.9308838096
 20
296.8982747019
 10
107.8405636876
 20
296.8982747019
 10
107.8405636876
 20
296.8982747019
 10
107.8405636876
 20
292.7519332384
 10
107.8405636876
 20
292.7519332384
 10
109.9404112486
 20
292.7519332384
 10
109.9404112486
 20
292.7519332384
 10
111.011295395
 20
294.1658051897
 10
111.011295395
 20
294.1658051897
 10
111.011295395
 20
295.4844027506
  0
LWPOLYLINE
  5
BC
330
1F
100
AcDbEntity
  8
0
  6
Continuous
 62
     7
100
AcDbPolyline
 90
       61
 70
   128
 43
0.0
 10
178.4145832062
 20
304.261028879
 10
179.6132257374
 20
302.6070654643
 10
179.6132257374
 20
302.6070654643
 10
179.6322806154
 20
302.483208757
 10
179.6322806154
 20
302.483208757
 10
179.6322806154
 20
300.842583757
 10
179.6322806154
 20
300.842583757
 10
179.6017928105
 20
300.7473093668
 10
179.6017928105
 20
300.7473093668
 10
178.5690184203
 20
299.3353429034
 10
178.5690184203
 20
299.3353429034
 10
179.6017928105
 20
297.8986050985
 10
179.6017928105
 20
297.8986050985
 10
179.6322806154
 20
297.8033307082
 10
179.6322806154
 20
297.8033307082
 10
179.6322806154
 20
296.1207849765
 10
179.6322806154
 20
296.1207849765
 10
179.6017928105
 20
296.0121721717
 10
179.6017928105
 20
296.0121721717
 10
178.3822806154
 20
294.3563032692
 10
178.3822806154
 20
294.3563032692
 10
178.2831952495
 20
294.3429648546
 10
178.2831952495
 20
294.3429648546
 10
174.7618537861
 20
294.3429648546
 10
174.7618537861
 20
294.3429648546
 10
174.704689152
 20
294.3791691229
 10
174.6646739081
 20
294.4325227814
 10
174.6399025666
 20
294.5011203424
 10
174.6322806154
 20
294.5868672936
 10
174.6322806154
 20
294.5868672936
 10
174.6475245178
 20
294.6897636351
 10
174.6932562252
 20
294.7659831473
 10
174.7313659813
 20
294.7945654643
 10
174.7809086642
 20
294.8155258302
 10
174.8437897617
 20
294.826958757
 10
174.9181037861
 20
294.8307697326
 10
174.9181037861
 20
294.8307697326
 10
175.729841591
 20
294.8307697326
 10
175.729841591
 20
294.8307697326
 10
175.729841591
 20
303.8551599765
 10
175.729841591
 20
303.8551599765
 10
174.773286713
 20
303.8551599765
 10
174.773286713
 20
303.8551599765
 10
174.7180275666
 20
303.8818368058
 10
174.6780123227
 20
303.9237575375
 10
174.6475245178
 20
303.9828276595
 10
174.6322806154
 20
304.0571416839
 10
174.6322806154
 20
304.0571416839
 10
174.6437135422
 20
304.1752819278
 10
174.6761068349
 20
304.2648398546
 10
174.704689152
 20
304.2991386351
 10
174.7447043959
 20
304.3239099765
 10
174.7980580544
 20
304.3372483912
 10
174.860939152
 20
304.3429648546
 10
174.860939152
 20
304.3429648546
 10
174.9695519569
 20
304.3429648546
 10
174.9695519569
 20
304.3429648546
 10
178.2565184203
 20
304.3429648546
 10
178.2565184203
 20
304.3429648546
 10
178.3498873227
 20
304.3220044887
 10
178.4146739081
 20
304.261028879
  0
LWPOLYLINE
  5
BD
330
1F
100
AcDbEntity
  8
0
  6
Continuous
 62
     7
100
AcDbPolyline
 90
       12
 70
   128
 43
0.0
 10
179.26633358
 20
302.3669740009
 10
178.1955428105
 20
303.8551599765
 10
178.1955428105
 20
303.8551599765
 10
176.0956952495
 20
303.8551599765
 10
176.0956952495
 20
303.8551599765
 10
176.0956952495
 20
299.4649160741
 10
176.0956952495
 20
299.4649160741
 10
178.1860153715
 20
299.4649160741
 10
178.1860153715
 20
299.4649160741
 10
179.2664269569
 20
300.9531020497
 10
179.2664269569
 20
300.9531020497
 10
179.2664269569
 20
302.3669740009
  0
LWPOLYLINE
  5
BE
330
1F
100
AcDbEntity
  8
0
  6
Continuous
 62
     7
100
AcDbPolyline
 90
       12
 70
   128
 43
0.0
 10
179.26633358
 20
297.5632392448
 10
178.1860153715
 20
298.9771111961
 10
178.1860153715
 20
298.9771111961
 10
176.0956952495
 20
298.9771111961
 10
176.0956952495
 20
298.9771111961
 10
176.0956952495
 20
294.8307697326
 10
176.0956952495
 20
294.8307697326
 10
178.1955428105
 20
294.8307697326
 10
178.1955428105
 20
294.8307697326
 10
179.2664269569
 20
296.2446416839
 10
179.2664269569
 20
296.2446416839
 10
179.2664269569
 20
297.5632392448
  0
LWPOLYLINE
  5
BF
330
1F
100
AcDbEntity
  8
0
  6
Continuous
 62
     7
100
AcDbPolyline
 90
       61
 70
   128
 43
0.0
 10
113.7102842331
 20
206.6209866634
 10
114.549283876
 20
205.4632122732
 10
114.549283876
 20
205.4632122732
 10
114.5626222906
 20
205.376512578
 10
114.5626222906
 20
205.376512578
 10
114.5626222906
 20
204.228075078
 10
114.5626222906
 20
204.228075078
 10
114.5412808272
 20
204.1613830049
 10
114.5412808272
 20
204.1613830049
 10
113.818338754
 20
203.1730064805
 10
113.818338754
 20
203.1730064805
 10
114.5412808272
 20
202.1672900171
 10
114.5412808272
 20
202.1672900171
 10
114.5626222906
 20
202.1005979439
 10
114.5626222906
 20
202.1005979439
 10
114.5626222906
 20
200.9228159317
 10
114.5626222906
 20
200.9228159317
 10
114.5412808272
 20
200.8467869683
 10
114.5412808272
 20
200.8467869683
 10
113.6876222906
 20
199.6876787366
 10
113.6876222906
 20
199.6876787366
 10
113.6182625345
 20
199.6783418463
 10
113.6182625345
 20
199.6783418463
 10
111.1533235101
 20
199.6783418463
 10
111.1533235101
 20
199.6783418463
 10
111.1133082662
 20
199.7036848341
 10
111.0852975955
 20
199.7410323951
 10
111.0679576565
 20
199.7890506878
 10
111.0626222906
 20
199.8490735537
 10
111.0626222906
 20
199.8490735537
 10
111.0732930223
 20
199.9211009927
 10
111.1053052174
 20
199.9744546512
 10
111.1319820467
 20
199.9944622732
 10
111.1666619247
 20
200.0091345293
 10
111.210678693
 20
200.017137578
 10
111.2626985101
 20
200.019805261
 10
111.2626985101
 20
200.019805261
 10
111.8309149735
 20
200.019805261
 10
111.8309149735
 20
200.019805261
 10
111.8309149735
 20
206.3368784317
 10
111.8309149735
 20
206.3368784317
 10
111.1613265589
 20
206.3368784317
 10
111.1613265589
 20
206.3368784317
 10
111.1226451565
 20
206.3555522122
 10
111.0946344857
 20
206.3848967244
 10
111.0732930223
 20
206.4262458098
 10
111.0626222906
 20
206.4782656268
 10
111.0626222906
 20
206.4782656268
 10
111.0706253394
 20
206.5609637976
 10
111.0933006443
 20
206.6236543463
 10
111.1133082662
 20
206.6476634927
 10
111.1413189369
 20
206.6650034317
 10
111.1786664979
 20
206.674340322
 10
111.2226832662
 20
206.6783418463
 10
111.2226832662
 20
206.6783418463
 10
111.2987122296
 20
206.6783418463
 10
111.2987122296
 20
206.6783418463
 10
113.599588754
 20
206.6783418463
 10
113.599588754
 20
206.6783418463
 10
113.6649469857
 20
206.6636695902
 10
113.7102975955
 20
206.6209866634
  0
LWPOLYLINE
  5
C0
330
1F
100
AcDbEntity
  8
0
  6
Continuous
 62
     7
100
AcDbPolyline
 90
       12
 70
   128
 43
0.0
 10
114.3065094948
 20
205.2951482488
 10
113.5569058272
 20
206.3368784317
 10
113.5569058272
 20
206.3368784317
 10
112.0870125345
 20
206.3368784317
 10
112.0870125345
 20
206.3368784317
 10
112.0870125345
 20
203.2637077
 10
112.0870125345
 20
203.2637077
 10
113.5502366199
 20
203.2637077
 10
113.5502366199
 20
203.2637077
 10
114.3065247296
 20
204.3054378829
 10
114.3065247296
 20
204.3054378829
 10
114.3065247296
 20
205.2951482488
  0
LWPOLYLINE
  5
C1
330
1F
100
AcDbEntity
  8
0
  6
Continuous
 62
     7
100
AcDbPolyline
 90
       12
 70
   128
 43
0.0
 10
114.3065094948
 20
201.9325339195
 10
113.5502366199
 20
202.9222442854
 10
113.5502366199
 20
202.9222442854
 10
112.0870125345
 20
202.9222442854
 10
112.0870125345
 20
202.9222442854
 10
112.0870125345
 20
200.019805261
 10
112.0870125345
 20
200.019805261
 10
113.5569058272
 20
200.019805261
 10
113.5569058272
 20
200.019805261
 10
114.3065247296
 20
201.0095156268
 10
114.3065247296
 20
201.0095156268
 10
114.3065247296
 20
201.9325339195
  0
LWPOLYLINE
  5
C2
330
1F
100
AcDbEntity
  8
0
  6
Continuous
 62
     7
100
AcDbPolyline
 90
       29
 70
   128
 43
0.0
 10
119.1563606262
 20
203.3490735537
 10
119.2137274735
 20
203.3037229439
 10
119.2510750345
 20
203.2276939805
 10
119.2510750345
 20
203.2276939805
 10
119.2564104004
 20
203.189012578
 10
119.2577442418
 20
203.1356589195
 10
119.2577442418
 20
203.1356589195
 10
119.252408876
 20
203.079637578
 10
119.2377366199
 20
203.0129455049
 10
119.2230643638
 20
202.9809333098
 10
119.197721376
 20
202.955590322
 10
119.1617076565
 20
202.9355827
 10
119.1150232052
 20
202.9222442854
 10
119.1150232052
 20
202.9222442854
 10
115.951151254
 20
202.9222442854
 10
115.951151254
 20
202.9222442854
 10
115.8924622296
 20
202.9675948951
 10
115.8497793028
 20
203.0436238585
 10
115.8497793028
 20
203.0436238585
 10
115.8444439369
 20
203.0849729439
 10
115.8431100955
 20
203.1463296512
 10
115.8431100955
 20
203.1463296512
 10
115.8551146686
 20
203.2423662366
 10
115.8911283882
 20
203.3090583098
 10
115.8911283882
 20
203.3090583098
 10
115.9191390589
 20
203.3290659317
 10
115.9644896686
 20
203.3490735537
 10
115.9644896686
 20
203.3490735537
 10
119.1563722906
 20
203.3490735537
  0
LWPOLYLINE
  5
C3
330
1F
100
AcDbEntity
  8
0
  6
Continuous
 62
     7
100
AcDbPolyline
 90
       61
 70
   128
 43
0.0
 10
123.2712268829
 20
206.6209866634
 10
124.1102594857
 20
205.4632122732
 10
124.1102594857
 20
205.4632122732
 10
124.1235979004
 20
205.376512578
 10
124.1235979004
 20
205.376512578
 10
124.1235979004
 20
204.228075078
 10
124.1235979004
 20
204.228075078
 10
124.1022564369
 20
204.1613830049
 10
124.1022564369
 20
204.1613830049
 10
123.3793143638
 20
203.1730064805
 10
123.3793143638
 20
203.1730064805
 10
124.1022564369
 20
202.1672900171
 10
124.1022564369
 20
202.1672900171
 10
124.1235979004
 20
202.1005979439
 10
124.1235979004
 20
202.1005979439
 10
124.1235979004
 20
200.9228159317
 10
124.1235979004
 20
200.9228159317
 10
124.1022564369
 20
200.8467869683
 10
124.1022564369
 20
200.8467869683
 10
123.2485979004
 20
199.6876787366
 10
123.2485979004
 20
199.6876787366
 10
123.1792381443
 20
199.6783418463
 10
123.1792381443
 20
199.6783418463
 10
120.7142991199
 20
199.6783418463
 10
120.7142991199
 20
199.6783418463
 10
120.674283876
 20
199.7036848341
 10
120.6462732052
 20
199.7410323951
 10
120.6289332662
 20
199.7890506878
 10
120.6235979004
 20
199.8490735537
 10
120.6235979004
 20
199.8490735537
 10
120.6342686321
 20
199.9211009927
 10
120.6662808272
 20
199.9744546512
 10
120.6929576565
 20
199.9944622732
 10
120.7276375345
 20
200.0091345293
 10
120.7716543028
 20
200.017137578
 10
120.8236741199
 20
200.019805261
 10
120.8236741199
 20
200.019805261
 10
121.3918905833
 20
200.019805261
 10
121.3918905833
 20
200.019805261
 10
121.3918905833
 20
206.3368784317
 10
121.3918905833
 20
206.3368784317
 10
120.7223021686
 20
206.3368784317
 10
120.7223021686
 20
206.3368784317
 10
120.6836207662
 20
206.3555522122
 10
120.6556100955
 20
206.3848967244
 10
120.6342686321
 20
206.4262458098
 10
120.6235979004
 20
206.4782656268
 10
120.6235979004
 20
206.4782656268
 10
120.6316009491
 20
206.5609637976
 10
120.654276254
 20
206.6236543463
 10
120.674283876
 20
206.6476634927
 10
120.7022945467
 20
206.6650034317
 10
120.7396421077
 20
206.674340322
 10
120.783658876
 20
206.6783418463
 10
120.783658876
 20
206.6783418463
 10
120.8596878394
 20
206.6783418463
 10
120.8596878394
 20
206.6783418463
 10
123.1605643638
 20
206.6783418463
 10
123.1605643638
 20
206.6783418463
 10
123.2259225955
 20
206.6636695902
 10
123.2712732052
 20
206.6209866634
  0
LWPOLYLINE
  5
C4
330
1F
100
AcDbEntity
  8
0
  6
Continuous
 62
     7
100
AcDbPolyline
 90
       12
 70
   128
 43
0.0
 10
123.8674521446
 20
205.2951482488
 10
123.1178814369
 20
206.3368784317
 10
123.1178814369
 20
206.3368784317
 10
121.6479881443
 20
206.3368784317
 10
121.6479881443
 20
206.3368784317
 10
121.6479881443
 20
203.2637077
 10
121.6479881443
 20
203.2637077
 10
123.1112122296
 20
203.2637077
 10
123.1112122296
 20
203.2637077
 10
123.8675003394
 20
204.3054378829
 10
123.8675003394
 20
204.3054378829
 10
123.8675003394
 20
205.2951482488
  0
LWPOLYLINE
  5
C5
330
1F
100
AcDbEntity
  8
0
  6
Continuous
 62
     7
100
AcDbPolyline
 90
       12
 70
   128
 43
0.0
 10
123.8674521446
 20
201.9325339195
 10
123.1112122296
 20
202.9222442854
 10
123.1112122296
 20
202.9222442854
 10
121.6479881443
 20
202.9222442854
 10
121.6479881443
 20
202.9222442854
 10
121.6479881443
 20
200.019805261
 10
121.6479881443
 20
200.019805261
 10
123.1178814369
 20
200.019805261
 10
123.1178814369
 20
200.019805261
 10
123.8675003394
 20
201.0095156268
 10
123.8675003394
 20
201.0095156268
 10
123.8675003394
 20
201.9325339195
  0
POINT
  5
C6
330
1F
100
AcDbEntity
  8
0
  6
Continuous
 62
     7
100
AcDbPoint
 10
137.7567023397
 20
478.6180652893
 30
0.0
  0
POINT
  5
C7
330
1F
100
AcDbEntity
  8
0
  6
Continuous
 62
     7
100
AcDbPoint
 10
137.7567023397
 20
434.6180655278
 30
0.0
  0
POINT
  5
C8
330
1F
100
AcDbEntity
  8
0
  6
Continuous
 62
     7
100
AcDbPoint
 10
139.2567021605
 20
456.6180654085
 30
0.0
  0
POINT
  5
C9
330
1F
100
AcDbEntity
  8
0
  6
Continuous
 62
     7
100
AcDbPoint
 10
151.2567013335
 20
456.6180654085
 30
0.0
  0
POINT
  5
CA
330
1F
100
AcDbEntity
  8
0
  6
Continuous
 62
     7
100
AcDbPoint
 10
152.7567029358
 20
434.6180655278
 30
0.0
  0
POINT
  5
CB
330
1F
100
AcDbEntity
  8
0
  6
Continuous
 62
     7
100
AcDbPoint
 10
140.4067027421
 20
357.1180657662
 30
0.0
  0
POINT
  5
CC
330
1F
100
AcDbEntity
  8
0
  6
Continuous
 62
     7
100
AcDbPoint
 10
150.1067027421
 20
357.1180657662
 30
0.0
  0
POINT
  5
CD
330
1F
100
AcDbEntity
  8
0
  6
Continuous
 62
     7
100
AcDbPoint
 10
138.8567023829
 20
176.3227057743
 30
0.0
  0
POINT
  5
CE
330
1F
100
AcDbEntity
  8
0
  6
Continuous
 62
     7
100
AcDbPoint
 10
149.6567023829
 20
176.3227057743
 30
0.0
  0
POINT
  5
CF
330
1F
100
AcDbEntity
  8
0
  6
Continuous
 62
     7
100
AcDbPoint
 10
154.2567033068
 20
170.3227057221
 30
0.0
  0
ARC
  5
D0
330
1B
100
AcDbEntity
 67
     1
  8
0
  6
Continuous
 62
     7
100
AcDbCircle
 10
251.2567013335
 20
456.618055239
 30
0.0
 40
100.0000000000001
100
AcDbArc
 50
170.0636276075
 51
189.9363664771
  0
ARC
  5
D1
330
1B
100
AcDbEntity
 67
     1
  8
0
  6
Continuous
 62
     7
100
AcDbCircle
 10
150.7567025251
 20
476.6180648786
 30
0.0
 40
2.000000410711763
100
AcDbArc
 50
0.0000023752
 51
89.999988234
  0
ARC
  5
D2
330
1B
100
AcDbEntity
 67
     1
  8
0
  6
Continuous
 62
     7
100
AcDbCircle
 10
139.7567023397
 20
476.6180652893
 30
0.0
 40
2.000000000000055
100
AcDbArc
 50
90.0
 51
180.0000093908
  0
ARC
  5
D3
330
1B
100
AcDbEntity
 67
     1
  8
0
  6
Continuous
 62
     7
100
AcDbCircle
 10
39.2567021605
 20
456.6180654085
 30
0.0
 40
100.0
100
AcDbArc
 50
350.0636335229
 51
9.9363664771
  0
ARC
  5
D4
330
1B
100
AcDbEntity
 67
     1
  8
0
  6
Continuous
 62
     7
100
AcDbCircle
 10
139.7567023397
 20
436.6180655278
 30
0.0
 40
2.000000000000044
100
AcDbArc
 50
180.0000973312
 51
270.0
  0
ARC
  5
D5
330
1B
100
AcDbEntity
 67
     1
  8
0
  6
Continuous
 62
     7
100
AcDbCircle
 10
150.7567013512
 20
436.6180653309
 30
0.0
 40
1.9999998031367
100
AcDbArc
 50
270.0000453958
 51
359.9996169731
  0
ARC
  5
D6
330
1B
100
AcDbEntity
 67
     1
  8
0
  6
Continuous
 62
     7
100
AcDbCircle
 10
141.2567021605
 20
377.1180648125
 30
0.0
 40
1.99999999999973
100
AcDbArc
 50
90.0
 51
180.0001161128
  0
ARC
  5
D7
330
1B
100
AcDbEntity
 67
     1
  8
0
  6
Continuous
 62
     7
100
AcDbCircle
 10
40.4067020555
 20
357.1180649317
 30
0.0
 40
100.0
100
AcDbArc
 50
351.3023163072
 51
8.6976836928
  0
ARC
  5
D8
330
1B
100
AcDbEntity
 67
     1
  8
0
  6
Continuous
 62
     7
100
AcDbCircle
 10
141.2567021605
 20
337.1180650509
 30
0.0
 40
1.999999999999702
100
AcDbArc
 50
179.9998838872
 51
270.0
  0
ARC
  5
D9
330
1B
100
AcDbEntity
 67
     1
  8
0
  6
Continuous
 62
     7
100
AcDbCircle
 10
149.2567010944
 20
337.1180652899
 30
0.0
 40
2.000000239049113
100
AcDbArc
 50
270.0000068483
 51
0.0001092645
  0
ARC
  5
DA
330
1B
100
AcDbEntity
 67
     1
  8
0
  6
Continuous
 62
     7
100
AcDbCircle
 10
250.1067014385
 20
357.1180649317
 30
0.0
 40
100.0000000000001
100
AcDbArc
 50
171.3023163072
 51
188.6976836928
  0
ARC
  5
DB
330
1B
100
AcDbEntity
 67
     1
  8
0
  6
Continuous
 62
     7
100
AcDbCircle
 10
149.2567004748
 20
377.1180639538
 30
0.0
 40
2.000000858696481
100
AcDbArc
 50
359.9999084871
 51
89.9999754001
  0
CIRCLE
  5
DC
330
1B
100
AcDbEntity
 67
     1
  8
0
  6
Continuous
 62
     7
100
AcDbCircle
 10
145.2567026377
 20
282.6180657662
 30
0.0
 40
4.999999999999996
  0
CIRCLE
  5
DD
330
1B
100
AcDbEntity
 67
     1
  8
0
  6
Continuous
 62
     7
100
AcDbCircle
 10
145.2567026377
 20
503.6180657662
 30
0.0
 40
5.000000000000007
  0
CIRCLE
  5
DE
330
1B
100
AcDbEntity
 67
     1
  8
0
  6
Continuous
 62
     7
100
AcDbCircle
 10
145.2567026377
 20
282.6180657662
 30
0.0
 40
2.700000000000064
  0
CIRCLE
  5
DF
330
1B
100
AcDbEntity
 67
     1
  8
0
  6
Continuous
 62
     7
100
AcDbCircle
 10
145.2567026377
 20
503.6180657662
 30
0.0
 40
2.700000000000031
  0
ARC
  5
E0
330
1B
100
AcDbEntity
 67
     1
  8
0
  6
CENTERX2
 62
     7
100
AcDbCircle
 10
149.2567004748
 20
377.1180639538
 30
0.0
 40
2.00000085869647
100
AcDbArc
 50
330.8994577059
 51
60.8994450871
  0
ARC
  5
E1
330
1B
100
AcDbEntity
 67
     1
  8
0
  6
CENTERX2
 62
     7
100
AcDbCircle
 10
149.2567010944
 20
337.1180652899
 30
0.0
 40
2.000000239049107
100
AcDbArc
 50
285.2983033348
 51
15.298315857
  0
ARC
  5
E2
330
1B
100
AcDbEntity
 67
     1
  8
0
  6
CENTERX2
 62
     7
100
AcDbCircle
 10
150.7567013512
 20
436.6180653309
 30
0.0
 40
1.999999803136686
100
AcDbArc
 50
269.2454273241
 51
359.2454397187
  0
ARC
  5
E3
330
1B
100
AcDbEntity
 67
     1
  8
0
  6
CENTERX2
 62
     7
100
AcDbCircle
 10
150.7567025251
 20
476.6180648786
 30
0.0
 40
2.000000410711662
100
AcDbArc
 50
345.0538863447
 51
75.0538834609
  0
LINE
  5
E4
330
1B
100
AcDbEntity
 67
     1
  8
0
  6
Continuous
 62
     7
100
AcDbLine
 10
152.7567029358
 20
473.8734983123
 30
0.0
 11
152.7567029358
 21
476.6180649615
 31
0.0
  0
LINE
  5
E5
330
1B
100
AcDbEntity
 67
     1
  8
0
  6
Continuous
 62
     7
100
AcDbLine
 10
150.7567029358
 20
478.6180652893
 30
0.0
 11
139.7567023397
 21
478.6180652893
 31
0.0
  0
LINE
  5
E6
330
1B
100
AcDbEntity
 67
     1
  8
0
  6
Continuous
 62
     7
100
AcDbLine
 10
137.7567023397
 20
476.6180649615
 30
0.0
 11
137.7567023397
 21
473.8734983123
 31
0.0
  0
LINE
  5
E7
330
1B
100
AcDbEntity
 67
     1
  8
0
  6
Continuous
 62
     7
100
AcDbLine
 10
137.7567023397
 20
439.3626325048
 30
0.0
 11
137.7567023397
 21
436.6180621303
 31
0.0
  0
LINE
  5
E8
330
1B
100
AcDbEntity
 67
     1
  8
0
  6
Continuous
 62
     7
100
AcDbLine
 10
139.7567023397
 20
434.6180655278
 30
0.0
 11
150.7567029358
 21
434.6180655278
 31
0.0
  0
LINE
  5
E9
330
1B
100
AcDbEntity
 67
     1
  8
0
  6
Continuous
 62
     7
100
AcDbLine
 10
152.7567011543
 20
436.6180519608
 30
0.0
 11
152.7567011543
 21
439.3626223353
 31
0.0
  0
LINE
  5
EA
330
1B
100
AcDbEntity
 67
     1
  8
0
  6
Continuous
 62
     7
100
AcDbLine
 10
149.2567013335
 20
379.1180648125
 30
0.0
 11
141.2567021605
 21
379.1180648125
 31
0.0
  0
LINE
  5
EB
330
1B
100
AcDbEntity
 67
     1
  8
0
  6
Continuous
 62
     7
100
AcDbLine
 10
139.2567021605
 20
377.1180607594
 30
0.0
 11
139.2567021605
 21
372.2401507414
 31
0.0
  0
LINE
  5
EC
330
1B
100
AcDbEntity
 67
     1
  8
0
  6
Continuous
 62
     7
100
AcDbLine
 10
139.2567021605
 20
341.995979122
 30
0.0
 11
139.2567021605
 21
337.118069104
 31
0.0
  0
LINE
  5
ED
330
1B
100
AcDbEntity
 67
     1
  8
0
  6
Continuous
 62
     7
100
AcDbLine
 10
141.2567021605
 20
335.1180650509
 30
0.0
 11
149.2567013335
 21
335.1180650509
 31
0.0
  0
LINE
  5
EE
330
1B
100
AcDbEntity
 67
     1
  8
0
  6
Continuous
 62
     7
100
AcDbLine
 10
151.2567013335
 20
337.118069104
 30
0.0
 11
151.2567013335
 21
341.995979122
 31
0.0
  0
LINE
  5
EF
330
1B
100
AcDbEntity
 67
     1
  8
0
  6
Continuous
 62
     7
100
AcDbLine
 10
151.2567013335
 20
372.2401507414
 30
0.0
 11
151.2567013335
 21
377.1180607594
 31
0.0
  0
LINE
  5
F0
330
1B
100
AcDbEntity
 67
     1
  8
0
  6
Continuous
 62
     7
100
AcDbLine
 10
133.2567025334
 20
270.6180609978
 30
0.0
 11
157.2567027421
 21
270.6180609978
 31
0.0
  0
LINE
  5
F1
330
1B
100
AcDbEntity
 67
     1
  8
0
  6
Continuous
 62
     7
100
AcDbLine
 10
133.2567025334
 20
515.6180657662
 30
0.0
 11
133.2567025334
 21
270.6180609978
 31
0.0
  0
LINE
  5
F2
330
1B
100
AcDbEntity
 67
     1
  8
0
  6
Continuous
 62
     7
100
AcDbLine
 10
157.2567027421
 20
515.6180657662
 30
0.0
 11
133.2567025334
 21
515.6180657662
 31
0.0
  0
LINE
  5
F3
330
1B
100
AcDbEntity
 67
     1
  8
0
  6
Continuous
 62
     7
100
AcDbLine
 10
157.2567027421
 20
270.6180609978
 30
0.0
 11
157.2567027421
 21
515.6180657662
 31
0.0
  0
LINE
  5
F4
330
1B
100
AcDbEntity
 67
     1
  8
0
  6
CENTERX2
 62
     7
100
AcDbLine
 10
126.8893128057
 20
357.1180657662
 30
0.0
 11
156.0782639407
 21
357.1180657662
 31
0.0
  0
LINE
  5
F5
330
1B
100
AcDbEntity
 67
     1
  8
0
  6
CENTERX2
 62
     7
100
AcDbLine
 10
164.3546372779
 20
456.6180657662
 30
0.0
 11
121.3992571575
 21
456.6180657662
 31
0.0
  0
LINE
  5
F6
330
1B
100
AcDbEntity
 67
     1
  8
0
  6
CENTERX2
 62
     7
100
AcDbLine
 10
145.2567026377
 20
515.6180657662
 30
0.0
 11
145.2567026377
 21
270.6180609978
 31
0.0
  0
LINE
  5
F7
330
1B
100
AcDbEntity
 67
     1
  8
0
  6
CENTERX2
 62
     7
100
AcDbLine
 10
145.2567026377
 20
287.6180657662
 30
0.0
 11
145.2567026377
 21
277.6180657662
 31
0.0
  0
LINE
  5
F8
330
1B
100
AcDbEntity
 67
     1
  8
0
  6
CENTERX2
 62
     7
100
AcDbLine
 10
150.2567026377
 20
282.6180657662
 30
0.0
 11
140.2567026377
 21
282.6180657662
 31
0.0
  0
LINE
  5
F9
330
1B
100
AcDbEntity
 67
     1
  8
0
  6
CENTERX2
 62
     7
100
AcDbLine
 10
145.2567026377
 20
508.6180657662
 30
0.0
 11
145.2567026377
 21
498.6180657662
 31
0.0
  0
LINE
  5
FA
330
1B
100
AcDbEntity
 67
     1
  8
0
  6
CENTERX2
 62
     7
100
AcDbLine
 10
150.2567026377
 20
503.6180657662
 30
0.0
 11
140.2567026377
 21
503.6180657662
 31
0.0
  0
LINE
  5
FB
330
1B
100
AcDbEntity
 67
     1
  8
0
  6
CENTERX2
 62
     7
100
AcDbLine
 10
113.0632939723
 20
282.6180657662
 30
0.0
 11
173.1213753705
 21
282.6180657662
 31
0.0
  0
LINE
  5
FC
330
1B
100
AcDbEntity
 67
     1
  8
0
  6
Continuous
 62
     7
100
AcDbLine
 10
117.0632939723
 20
297.6180657662
 30
0.0
 11
117.0632939723
 21
282.6180657662
 31
0.0
  0
LINE
  5
FD
330
1B
100
AcDbEntity
 67
     1
  8
0
  6
Continuous
 62
     7
100
AcDbLine
 10
169.1213753705
 20
297.6180657662
 30
0.0
 11
169.1213753705
 21
282.6180657662
 31
0.0
  0
LINE
  5
FE
330
1B
100
AcDbEntity
 67
     1
  8
0
  6
Continuous
 62
     7
100
AcDbLine
 10
123.3554211468
 20
176.3227057743
 30
0.0
 11
120.2567021647
 21
173.2239865784
 31
0.0
  0
LINE
  5
FF
330
1B
100
AcDbEntity
 67
     1
  8
0
  6
Continuous
 62
     7
100
AcDbLine
 10
132.3356793737
 20
176.3227057743
 30
0.0
 11
126.3356794626
 21
170.3227057221
 31
0.0
  0
LINE
  5
100
330
1B
100
AcDbEntity
 67
     1
  8
0
  6
Continuous
 62
     7
100
AcDbLine
 10
150.2961897314
 20
176.3227057743
 30
0.0
 11
149.6567023829
 21
175.6832181096
 31
0.0
  0
LINE
  5
101
330
1B
100
AcDbEntity
 67
     1
  8
0
  6
Continuous
 62
     7
100
AcDbLine
 10
159.2764462368
 20
176.3227057743
 30
0.0
 11
153.7665747209
 21
170.8128342584
 31
0.0
  0
LINE
  5
102
330
1B
100
AcDbEntity
 67
     1
  8
0
  6
Continuous
 62
     7
100
AcDbLine
 10
168.256702601
 20
176.3227057743
 30
0.0
 11
162.2567026899
 21
170.3227057221
 31
0.0
  0
LINE
  5
103
330
1B
100
AcDbEntity
 67
     1
  8
0
  6
Continuous
 62
     7
100
AcDbLine
 10
138.8567023829
 20
174.9227061804
 30
0.0
 11
138.8567023829
 21
176.3227057743
 31
0.0
  0
LINE
  5
104
330
1B
100
AcDbEntity
 67
     1
  8
0
  6
Continuous
 62
     7
100
AcDbLine
 10
138.8567023829
 20
174.9227061804
 30
0.0
 11
134.256701459
 21
170.3227057221
 31
0.0
  0
LINE
  5
105
330
1B
100
AcDbEntity
 67
     1
  8
0
  6
Continuous
 62
     7
100
AcDbLine
 10
134.256701459
 20
170.3227057221
 30
0.0
 11
120.2567021647
 21
170.3227057221
 31
0.0
  0
LINE
  5
106
330
1B
100
AcDbEntity
 67
     1
  8
0
  6
Continuous
 62
     7
100
AcDbLine
 10
120.2567021647
 20
176.3227057743
 30
0.0
 11
120.2567021647
 21
170.3227057221
 31
0.0
  0
LINE
  5
107
330
1B
100
AcDbEntity
 67
     1
  8
0
  6
Continuous
 62
     7
100
AcDbLine
 10
138.8567023829
 20
176.3227057743
 30
0.0
 11
120.2567021647
 21
176.3227057743
 31
0.0
  0
LINE
  5
108
330
1B
100
AcDbEntity
 67
     1
  8
0
  6
Continuous
 62
     7
100
AcDbLine
 10
149.6567023829
 20
176.3227057743
 30
0.0
 11
149.6567023829
 21
174.9227061804
 31
0.0
  0
LINE
  5
109
330
1B
100
AcDbEntity
 67
     1
  8
0
  6
Continuous
 62
     7
100
AcDbLine
 10
138.8567023829
 20
174.9227061804
 30
0.0
 11
149.6567023829
 21
174.9227061804
 31
0.0
  0
LINE
  5
10A
330
1B
100
AcDbEntity
 67
     1
  8
0
  6
Continuous
 62
     7
100
AcDbLine
 10
138.8567023829
 20
176.3227057743
 30
0.0
 11
149.6567023829
 21
176.3227057743
 31
0.0
  0
LINE
  5
10B
330
1B
100
AcDbEntity
 67
     1
  8
0
  6
Continuous
 62
     7
100
AcDbLine
 10
154.2567033068
 20
170.3227057221
 30
0.0
 11
149.6567023829
 21
174.9227061804
 31
0.0
  0
LINE
  5
10C
330
1B
100
AcDbEntity
 67
     1
  8
0
  6
Continuous
 62
     7
100
AcDbLine
 10
154.2567033068
 20
170.3227057221
 30
0.0
 11
134.256701459
 21
170.3227057221
 31
0.0
  0
LINE
  5
10D
330
1B
100
AcDbEntity
 67
     1
  8
0
  6
Continuous
 62
     7
100
AcDbLine
 10
168.256702601
 20
176.3227057743
 30
0.0
 11
149.6567023829
 21
176.3227057743
 31
0.0
  0
LINE
  5
10E
330
1B
100
AcDbEntity
 67
     1
  8
0
  6
Continuous
 62
     7
100
AcDbLine
 10
168.256702601
 20
170.3227057221
 30
0.0
 11
154.2567033068
 21
170.3227057221
 31
0.0
  0
LINE
  5
10F
330
1B
100
AcDbEntity
 67
     1
  8
0
  6
Continuous
 62
     7
100
AcDbLine
 10
168.256702601
 20
170.3227057221
 30
0.0
 11
168.256702601
 21
176.3227057743
 31
0.0
  0
LINE
  5
110
330
1B
100
AcDbEntity
 67
     1
  8
0
  6
Continuous
 62
     7
100
AcDbLine
 10
117.0632939723
 20
282.6180657662
 30
0.0
 11
118.5632939723
 21
290.6180657662
 31
0.0
  0
LINE
  5
111
330
1B
100
AcDbEntity
 67
     1
  8
0
  6
Continuous
 62
     7
100
AcDbLine
 10
118.5632939723
 20
290.6180657662
 30
0.0
 11
115.5632939723
 21
290.6180657662
 31
0.0
  0
LINE
  5
112
330
1B
100
AcDbEntity
 67
     1
  8
0
  6
Continuous
 62
     7
100
AcDbLine
 10
115.5632939723
 20
290.6180657662
 30
0.0
 11
117.0632939723
 21
282.6180657662
 31
0.0
  0
LINE
  5
113
330
1B
100
AcDbEntity
 67
     1
  8
0
  6
Continuous
 62
     7
100
AcDbLine
 10
169.1213753705
 20
282.6180657662
 30
0.0
 11
170.6213753705
 21
290.6180657662
 31
0.0
  0
LINE
  5
114
330
1B
100
AcDbEntity
 67
     1
  8
0
  6
Continuous
 62
     7
100
AcDbLine
 10
170.6213753705
 20
290.6180657662
 30
0.0
 11
167.6213753705
 21
290.6180657662
 31
0.0
  0
LINE
  5
115
330
1B
100
AcDbEntity
 67
     1
  8
0
  6
Continuous
 62
     7
100
AcDbLine
 10
167.6213753705
 20
290.6180657662
 30
0.0
 11
169.1213753705
 21
282.6180657662
 31
0.0
  0
LWPOLYLINE
  5
116
330
1B
100
AcDbEntity
 67
     1
  8
0
  6
Continuous
 62
     7
100
AcDbPolyline
 90
       61
 70
   128
 43
0.0
 10
110.1595163345
 20
302.1821923848
 10
111.3580941755
 20
300.5282289701
 10
111.3580941755
 20
300.5282289701
 10
111.3771490535
 20
300.4043722628
 10
111.3771490535
 20
300.4043722628
 10
111.3771490535
 20
298.7637472628
 10
111.3771490535
 20
298.7637472628
 10
111.3466612486
 20
298.6684728726
 10
111.3466612486
 20
298.6684728726
 10
110.3138868584
 20
297.2565064092
 10
110.3138868584
 20
297.2565064092
 10
111.3466612486
 20
295.8197686043
 10
111.3466612486
 20
295.8197686043
 10
111.3771490535
 20
295.724494214
 10
111.3771490535
 20
295.724494214
 10
111.3771490535
 20
294.0419484823
 10
111.3771490535
 20
294.0419484823
 10
111.3466612486
 20
293.9333356775
 10
111.3466612486
 20
293.9333356775
 10
110.1271490535
 20
292.277466775
 10
110.1271490535
 20
292.277466775
 10
110.0280636876
 20
292.2641283604
 10
110.0280636876
 20
292.2641283604
 10
106.5067222242
 20
292.2641283604
 10
106.5067222242
 20
292.2641283604
 10
106.4495575901
 20
292.3003326287
 10
106.4095423462
 20
292.3536862872
 10
106.3847710047
 20
292.4222838482
 10
106.3771490535
 20
292.5080307994
 10
106.3771490535
 20
292.5080307994
 10
106.3923929559
 20
292.6109271409
 10
106.4381246633
 20
292.6871466531
 10
106.4762344194
 20
292.7157289701
 10
106.5257771023
 20
292.736689336
 10
106.5886581998
 20
292.7481222628
 10
106.6629722242
 20
292.7519332384
 10
106.6629722242
 20
292.7519332384
 10
107.4747100291
 20
292.7519332384
 10
107.4747100291
 20
292.7519332384
 10
107.4747100291
 20
301.7763234823
 10
107.4747100291
 20
301.7763234823
 10
106.5181551511
 20
301.7763234823
 10
106.5181551511
 20
301.7763234823
 10
106.4628960047
 20
301.8030003116
 10
106.4228807608
 20
301.8449210433
 10
106.3923929559
 20
301.9039911653
 10
106.3771490535
 20
301.9783051897
 10
106.3771490535
 20
301.9783051897
 10
106.3885819803
 20
302.0964454336
 10
106.420975273
 20
302.1860033604
 10
106.4495575901
 20
302.2203021409
 10
106.489572834
 20
302.2450734823
 10
106.5429264925
 20
302.258411897
 10
106.6058075901
 20
302.2641283604
 10
106.6058075901
 20
302.2641283604
 10
106.714420395
 20
302.2641283604
 10
106.714420395
 20
302.2641283604
 10
110.0013868584
 20
302.2641283604
 10
110.0013868584
 20
302.2641283604
 10
110.0947557608
 20
302.2431679945
 10
110.1595423462
 20
302.1821923848
  0
LWPOLYLINE
  5
117
330
1B
100
AcDbEntity
 67
     1
  8
0
  6
Continuous
 62
     7
100
AcDbPolyline
 90
       12
 70
   128
 43
0.0
 10
111.0112667084
 20
300.2881375067
 10
109.9404112486
 20
301.7763234823
 10
109.9404112486
 20
301.7763234823
 10
107.8405636876
 20
301.7763234823
 10
107.8405636876
 20
301.7763234823
 10
107.8405636876
 20
297.3860795799
 10
107.8405636876
 20
297.3860795799
 10
109.9308838096
 20
297.3860795799
 10
109.9308838096
 20
297.3860795799
 10
111.011295395
 20
298.8742655555
 10
111.011295395
 20
298.8742655555
 10
111.011295395
 20
300.2881375067
  0
LWPOLYLINE
  5
118
330
1B
100
AcDbEntity
 67
     1
  8
0
  6
Continuous
 62
     7
100
AcDbPolyline
 90
       12
 70
   128
 43
0.0
 10
111.0112667084
 20
295.4844027506
 10
109.9308838096
 20
296.8982747019
 10
109.9308838096
 20
296.8982747019
 10
107.8405636876
 20
296.8982747019
 10
107.8405636876
 20
296.8982747019
 10
107.8405636876
 20
292.7519332384
 10
107.8405636876
 20
292.7519332384
 10
109.9404112486
 20
292.7519332384
 10
109.9404112486
 20
292.7519332384
 10
111.011295395
 20
294.1658051897
 10
111.011295395
 20
294.1658051897
 10
111.011295395
 20
295.4844027506
  0
LWPOLYLINE
  5
119
330
1B
100
AcDbEntity
 67
     1
  8
0
  6
Continuous
 62
     7
100
AcDbPolyline
 90
       61
 70
   128
 43
0.0
 10
178.4145832062
 20
304.261028879
 10
179.6132257374
 20
302.6070654643
 10
179.6132257374
 20
302.6070654643
 10
179.6322806154
 20
302.483208757
 10
179.6322806154
 20
302.483208757
 10
179.6322806154
 20
300.842583757
 10
179.6322806154
 20
300.842583757
 10
179.6017928105
 20
300.7473093668
 10
179.6017928105
 20
300.7473093668
 10
178.5690184203
 20
299.3353429034
 10
178.5690184203
 20
299.3353429034
 10
179.6017928105
 20
297.8986050985
 10
179.6017928105
 20
297.8986050985
 10
179.6322806154
 20
297.8033307082
 10
179.6322806154
 20
297.8033307082
 10
179.6322806154
 20
296.1207849765
 10
179.6322806154
 20
296.1207849765
 10
179.6017928105
 20
296.0121721717
 10
179.6017928105
 20
296.0121721717
 10
178.3822806154
 20
294.3563032692
 10
178.3822806154
 20
294.3563032692
 10
178.2831952495
 20
294.3429648546
 10
178.2831952495
 20
294.3429648546
 10
174.7618537861
 20
294.3429648546
 10
174.7618537861
 20
294.3429648546
 10
174.704689152
 20
294.3791691229
 10
174.6646739081
 20
294.4325227814
 10
174.6399025666
 20
294.5011203424
 10
174.6322806154
 20
294.5868672936
 10
174.6322806154
 20
294.5868672936
 10
174.6475245178
 20
294.6897636351
 10
174.6932562252
 20
294.7659831473
 10
174.7313659813
 20
294.7945654643
 10
174.7809086642
 20
294.8155258302
 10
174.8437897617
 20
294.826958757
 10
174.9181037861
 20
294.8307697326
 10
174.9181037861
 20
294.8307697326
 10
175.729841591
 20
294.8307697326
 10
175.729841591
 20
294.8307697326
 10
175.729841591
 20
303.8551599765
 10
175.729841591
 20
303.8551599765
 10
174.773286713
 20
303.8551599765
 10
174.773286713
 20
303.8551599765
 10
174.7180275666
 20
303.8818368058
 10
174.6780123227
 20
303.9237575375
 10
174.6475245178
 20
303.9828276595
 10
174.6322806154
 20
304.0571416839
 10
174.6322806154
 20
304.0571416839
 10
174.6437135422
 20
304.1752819278
 10
174.6761068349
 20
304.2648398546
 10
174.704689152
 20
304.2991386351
 10
174.7447043959
 20
304.3239099765
 10
174.7980580544
 20
304.3372483912
 10
174.860939152
 20
304.3429648546
 10
174.860939152
 20
304.3429648546
 10
174.9695519569
 20
304.3429648546
 10
174.9695519569
 20
304.3429648546
 10
178.2565184203
 20
304.3429648546
 10
178.2565184203
 20
304.3429648546
 10
178.3498873227
 20
304.3220044887
 10
178.4146739081
 20
304.261028879
  0
LWPOLYLINE
  5
11A
330
1B
100
AcDbEntity
 67
     1
  8
0
  6
Continuous
 62
     7
100
AcDbPolyline
 90
       12
 70
   128
 43
0.0
 10
179.26633358
 20
302.3669740009
 10
178.1955428105
 20
303.8551599765
 10
178.1955428105
 20
303.8551599765
 10
176.0956952495
 20
303.8551599765
 10
176.0956952495
 20
303.8551599765
 10
176.0956952495
 20
299.4649160741
 10
176.0956952495
 20
299.4649160741
 10
178.1860153715
 20
299.4649160741
 10
178.1860153715
 20
299.4649160741
 10
179.2664269569
 20
300.9531020497
 10
179.2664269569
 20
300.9531020497
 10
179.2664269569
 20
302.3669740009
  0
LWPOLYLINE
  5
11B
330
1B
100
AcDbEntity
 67
     1
  8
0
  6
Continuous
 62
     7
100
AcDbPolyline
 90
       12
 70
   128
 43
0.0
 10
179.26633358
 20
297.5632392448
 10
178.1860153715
 20
298.9771111961
 10
178.1860153715
 20
298.9771111961
 10
176.0956952495
 20
298.9771111961
 10
176.0956952495
 20
298.9771111961
 10
176.0956952495
 20
294.8307697326
 10
176.0956952495
 20
294.8307697326
 10
178.1955428105
 20
294.8307697326
 10
178.1955428105
 20
294.8307697326
 10
179.2664269569
 20
296.2446416839
 10
179.2664269569
 20
296.2446416839
 10
179.2664269569
 20
297.5632392448
  0
LWPOLYLINE
  5
11C
330
1B
100
AcDbEntity
 67
     1
  8
0
  6
Continuous
 62
     7
100
AcDbPolyline
 90
       61
 70
   128
 43
0.0
 10
113.7102842331
 20
206.6209866634
 10
114.549283876
 20
205.4632122732
 10
114.549283876
 20
205.4632122732
 10
114.5626222906
 20
205.376512578
 10
114.5626222906
 20
205.376512578
 10
114.5626222906
 20
204.228075078
 10
114.5626222906
 20
204.228075078
 10
114.5412808272
 20
204.1613830049
 10
114.5412808272
 20
204.1613830049
 10
113.818338754
 20
203.1730064805
 10
113.818338754
 20
203.1730064805
 10
114.5412808272
 20
202.1672900171
 10
114.5412808272
 20
202.1672900171
 10
114.5626222906
 20
202.1005979439
 10
114.5626222906
 20
202.1005979439
 10
114.5626222906
 20
200.9228159317
 10
114.5626222906
 20
200.9228159317
 10
114.5412808272
 20
200.8467869683
 10
114.5412808272
 20
200.8467869683
 10
113.6876222906
 20
199.6876787366
 10
113.6876222906
 20
199.6876787366
 10
113.6182625345
 20
199.6783418463
 10
113.6182625345
 20
199.6783418463
 10
111.1533235101
 20
199.6783418463
 10
111.1533235101
 20
199.6783418463
 10
111.1133082662
 20
199.7036848341
 10
111.0852975955
 20
199.7410323951
 10
111.0679576565
 20
199.7890506878
 10
111.0626222906
 20
199.8490735537
 10
111.0626222906
 20
199.8490735537
 10
111.0732930223
 20
199.9211009927
 10
111.1053052174
 20
199.9744546512
 10
111.1319820467
 20
199.9944622732
 10
111.1666619247
 20
200.0091345293
 10
111.210678693
 20
200.017137578
 10
111.2626985101
 20
200.019805261
 10
111.2626985101
 20
200.019805261
 10
111.8309149735
 20
200.019805261
 10
111.8309149735
 20
200.019805261
 10
111.8309149735
 20
206.3368784317
 10
111.8309149735
 20
206.3368784317
 10
111.1613265589
 20
206.3368784317
 10
111.1613265589
 20
206.3368784317
 10
111.1226451565
 20
206.3555522122
 10
111.0946344857
 20
206.3848967244
 10
111.0732930223
 20
206.4262458098
 10
111.0626222906
 20
206.4782656268
 10
111.0626222906
 20
206.4782656268
 10
111.0706253394
 20
206.5609637976
 10
111.0933006443
 20
206.6236543463
 10
111.1133082662
 20
206.6476634927
 10
111.1413189369
 20
206.6650034317
 10
111.1786664979
 20
206.674340322
 10
111.2226832662
 20
206.6783418463
 10
111.2226832662
 20
206.6783418463
 10
111.2987122296
 20
206.6783418463
 10
111.2987122296
 20
206.6783418463
 10
113.599588754
 20
206.6783418463
 10
113.599588754
 20
206.6783418463
 10
113.6649469857
 20
206.6636695902
 10
113.7102975955
 20
206.6209866634
  0
LWPOLYLINE
  5
11D
330
1B
100
AcDbEntity
 67
     1
  8
0
  6
Continuous
 62
     7
100
AcDbPolyline
 90
       12
 70
   128
 43
0.0
 10
114.3065094948
 20
205.2951482488
 10
113.5569058272
 20
206.3368784317
 10
113.5569058272
 20
206.3368784317
 10
112.0870125345
 20
206.3368784317
 10
112.0870125345
 20
206.3368784317
 10
112.0870125345
 20
203.2637077
 10
112.0870125345
 20
203.2637077
 10
113.5502366199
 20
203.2637077
 10
113.5502366199
 20
203.2637077
 10
114.3065247296
 20
204.3054378829
 10
114.3065247296
 20
204.3054378829
 10
114.3065247296
 20
205.2951482488
  0
LWPOLYLINE
  5
11E
330
1B
100
AcDbEntity
 67
     1
  8
0
  6
Continuous
 62
     7
100
AcDbPolyline
 90
       12
 70
   128
 43
0.0
 10
114.3065094948
 20
201.9325339195
 10
113.5502366199
 20
202.9222442854
 10
113.5502366199
 20
202.9222442854
 10
112.0870125345
 20
202.9222442854
 10
112.0870125345
 20
202.9222442854
 10
112.0870125345
 20
200.019805261
 10
112.0870125345
 20
200.019805261
 10
113.5569058272
 20
200.019805261
 10
113.5569058272
 20
200.019805261
 10
114.3065247296
 20
201.0095156268
 10
114.3065247296
 20
201.0095156268
 10
114.3065247296
 20
201.9325339195
  0
LWPOLYLINE
  5
11F
330
1B
100
AcDbEntity
 67
     1
  8
0
  6
Continuous
 62
     7
100
AcDbPolyline
 90
       29
 70
   128
 43
0.0
 10
119.1563606262
 20
203.3490735537
 10
119.2137274735
 20
203.3037229439
 10
119.2510750345
 20
203.2276939805
 10
119.2510750345
 20
203.2276939805
 10
119.2564104004
 20
203.189012578
 10
119.2577442418
 20
203.1356589195
 10
119.2577442418
 20
203.1356589195
 10
119.252408876
 20
203.079637578
 10
119.2377366199
 20
203.0129455049
 10
119.2230643638
 20
202.9809333098
 10
119.197721376
 20
202.955590322
 10
119.1617076565
 20
202.9355827
 10
119.1150232052
 20
202.9222442854
 10
119.1150232052
 20
202.9222442854
 10
115.951151254
 20
202.9222442854
 10
115.951151254
 20
202.9222442854
 10
115.8924622296
 20
202.9675948951
 10
115.8497793028
 20
203.0436238585
 10
115.8497793028
 20
203.0436238585
 10
115.8444439369
 20
203.0849729439
 10
115.8431100955
 20
203.1463296512
 10
115.8431100955
 20
203.1463296512
 10
115.8551146686
 20
203.2423662366
 10
115.8911283882
 20
203.3090583098
 10
115.8911283882
 20
203.3090583098
 10
115.9191390589
 20
203.3290659317
 10
115.9644896686
 20
203.3490735537
 10
115.9644896686
 20
203.3490735537
 10
119.1563722906
 20
203.3490735537
  0
LWPOLYLINE
  5
120
330
1B
100
AcDbEntity
 67
     1
  8
0
  6
Continuous
 62
     7
100
AcDbPolyline
 90
       61
 70
   128
 43
0.0
 10
123.2712268829
 20
206.6209866634
 10
124.1102594857
 20
205.4632122732
 10
124.1102594857
 20
205.4632122732
 10
124.1235979004
 20
205.376512578
 10
124.1235979004
 20
205.376512578
 10
124.1235979004
 20
204.228075078
 10
124.1235979004
 20
204.228075078
 10
124.1022564369
 20
204.1613830049
 10
124.1022564369
 20
204.1613830049
 10
123.3793143638
 20
203.1730064805
 10
123.3793143638
 20
203.1730064805
 10
124.1022564369
 20
202.1672900171
 10
124.1022564369
 20
202.1672900171
 10
124.1235979004
 20
202.1005979439
 10
124.1235979004
 20
202.1005979439
 10
124.1235979004
 20
200.9228159317
 10
124.1235979004
 20
200.9228159317
 10
124.1022564369
 20
200.8467869683
 10
124.1022564369
 20
200.8467869683
 10
123.2485979004
 20
199.6876787366
 10
123.2485979004
 20
199.6876787366
 10
123.1792381443
 20
199.6783418463
 10
123.1792381443
 20
199.6783418463
 10
120.7142991199
 20
199.6783418463
 10
120.7142991199
 20
199.6783418463
 10
120.674283876
 20
199.7036848341
 10
120.6462732052
 20
199.7410323951
 10
120.6289332662
 20
199.7890506878
 10
120.6235979004
 20
199.8490735537
 10
120.6235979004
 20
199.8490735537
 10
120.6342686321
 20
199.9211009927
 10
120.6662808272
 20
199.9744546512
 10
120.6929576565
 20
199.9944622732
 10
120.7276375345
 20
200.0091345293
 10
120.7716543028
 20
200.017137578
 10
120.8236741199
 20
200.019805261
 10
120.8236741199
 20
200.019805261
 10
121.3918905833
 20
200.019805261
 10
121.3918905833
 20
200.019805261
 10
121.3918905833
 20
206.3368784317
 10
121.3918905833
 20
206.3368784317
 10
120.7223021686
 20
206.3368784317
 10
120.7223021686
 20
206.3368784317
 10
120.6836207662
 20
206.3555522122
 10
120.6556100955
 20
206.3848967244
 10
120.6342686321
 20
206.4262458098
 10
120.6235979004
 20
206.4782656268
 10
120.6235979004
 20
206.4782656268
 10
120.6316009491
 20
206.5609637976
 10
120.654276254
 20
206.6236543463
 10
120.674283876
 20
206.6476634927
 10
120.7022945467
 20
206.6650034317
 10
120.7396421077
 20
206.674340322
 10
120.783658876
 20
206.6783418463
 10
120.783658876
 20
206.6783418463
 10
120.8596878394
 20
206.6783418463
 10
120.8596878394
 20
206.6783418463
 10
123.1605643638
 20
206.6783418463
 10
123.1605643638
 20
206.6783418463
 10
123.2259225955
 20
206.6636695902
 10
123.2712732052
 20
206.6209866634
  0
LWPOLYLINE
  5
121
330
1B
100
AcDbEntity
 67
     1
  8
0
  6
Continuous
 62
     7
100
AcDbPolyline
 90
       12
 70
   128
 43
0.0
 10
123.8674521446
 20
205.2951482488
 10
123.1178814369
 20
206.3368784317
 10
123.1178814369
 20
206.3368784317
 10
121.6479881443
 20
206.3368784317
 10
121.6479881443
 20
206.3368784317
 10
121.6479881443
 20
203.2637077
 10
121.6479881443
 20
203.2637077
 10
123.1112122296
 20
203.2637077
 10
123.1112122296
 20
203.2637077
 10
123.8675003394
 20
204.3054378829
 10
123.8675003394
 20
204.3054378829
 10
123.8675003394
 20
205.2951482488
  0
LWPOLYLINE
  5
122
330
1B
100
AcDbEntity
 67
     1
  8
0
  6
Continuous
 62
     7
100
AcDbPolyline
 90
       12
 70
   128
 43
0.0
 10
123.8674521446
 20
201.9325339195
 10
123.1112122296
 20
202.9222442854
 10
123.1112122296
 20
202.9222442854
 10
121.6479881443
 20
202.9222442854
 10
121.6479881443
 20
202.9222442854
 10
121.6479881443
 20
200.019805261
 10
121.6479881443
 20
200.019805261
 10
123.1178814369
 20
200.019805261
 10
123.1178814369
 20
200.019805261
 10
123.8675003394
 20
201.0095156268
 10
123.8675003394
 20
201.0095156268
 10
123.8675003394
 20
201.9325339195
  0
POINT
  5
123
330
1B
100
AcDbEntity
 67
     1
  8
0
  6
Continuous
 62
     7
100
AcDbPoint
 10
137.7567023397
 20
478.6180652893
 30
0.0
  0
POINT
  5
124
330
1B
100
AcDbEntity
 67
     1
  8
0
  6
Continuous
 62
     7
100
AcDbPoint
 10
137.7567023397
 20
434.6180655278
 30
0.0
  0
POINT
  5
125
330
1B
100
AcDbEntity
 67
     1
  8
0
  6
Continuous
 62
     7
100
AcDbPoint
 10
139.2567021605
 20
456.6180654085
 30
0.0
  0
POINT
  5
126
330
1B
100
AcDbEntity
 67
     1
  8
0
  6
Continuous
 62
     7
100
AcDbPoint
 10
151.2567013335
 20
456.6180654085
 30
0.0
  0
POINT
  5
127
330
1B
100
AcDbEntity
 67
     1
  8
0
  6
Continuous
 62
     7
100
AcDbPoint
 10
152.7567029358
 20
434.6180655278
 30
0.0
  0
POINT
  5
128
330
1B
100
AcDbEntity
 67
     1
  8
0
  6
Continuous
 62
     7
100
AcDbPoint
 10
140.4067027421
 20
357.1180657662
 30
0.0
  0
POINT
  5
129
330
1B
100
AcDbEntity
 67
     1
  8
0
  6
Continuous
 62
     7
100
AcDbPoint
 10
150.1067027421
 20
357.1180657662
 30
0.0
  0
POINT
  5
12A
330
1B
100
AcDbEntity
 67
     1
  8
0
  6
Continuous
 62
     7
100
AcDbPoint
 10
138.8567023829
 20
176.3227057743
 30
0.0
  0
POINT
  5
12B
330
1B
100
AcDbEntity
 67
     1
  8
0
  6
Continuous
 62
     7
100
AcDbPoint
 10
149.6567023829
 20
176.3227057743
 30
0.0
  0
POINT
  5
12C
330
1B
100
AcDbEntity
 67
     1
  8
0
  6
Continuous
 62
     7
100
AcDbPoint
 10
154.2567033068
 20
170.3227057221
 30
0.0
  0
VIEWPORT
  5
31E
330
1B
100
AcDbEntity
 67
     1
  8
0
100
AcDbViewport
 10
0.0
 20
0.0
 30
0.0
 40
205.6
 41
156.0
 68
     1
 69
     1
 12
143.0047148344
 22
342.9703857442
 13
0.0
 23
0.0
 14
10.0
 24
10.0
 15
10.0
 25
10.0
 16
0.0
 26
0.0
 36
1.0
 17
0.0
 27
0.0
 37
0.0
 42
50.0
 43
0.0
 44
0.0
 45
352.2012672449
 50
0.0
 51
0.0
 72
   100
 90
   557152
  1

281
     0
 71
     1
 74
     0
110
0.0
120
0.0
130
0.0
111
1.0
121
0.0
131
0.0
112
0.0
122
1.0
132
0.0
 79
     0
146
0.0
170
     0
 61
     5
348
2F
292
     1
282
     1
141
0.0
142
0.0
 63
   256
361
31F
  0
ENDSEC
  0
SECTION
  2
OBJECTS
  0
DICTIONARY
  5
C
330
0
100
AcDbDictionary
281
     1
  3
ACAD_DETAILVIEWSTYLE
350
339
  3
ACAD_GROUP
350
D
  3
ACAD_LAYOUT
350
1A
  3
ACAD_MATERIAL
350
43
  3
ACAD_MLEADERSTYLE
350
6B
  3
ACAD_MLINESTYLE
350
17
  3
ACAD_PLOTSETTINGS
350
19
  3
ACAD_PLOTSTYLENAME
350
E
  3
ACAD_SCALELIST
350
47
  3
ACAD_SECTIONVIEWSTYLE
350
33A
  3
ACAD_TABLESTYLE
350
69
  3
ACAD_VISUALSTYLE
350
2A
  3
ACDB_RECOMPOSE_DATA
350
336
  3
AcDbVariableDictionary
350
332
  0
SUN
  5
6D
330
29
100
AcDbSun
 90
        1
290
     0
 63
     7
421
 16777215
 40
1.0
291
     1
 91
  2455826
 92
 54000000
292
     0
 70
     2
 71
   256
280
     1
  0
SUN
  5
321
330
320
100
AcDbSun
 90
        1
290
     0
 63
     7
421
 16777215
 40
1.0
291
     1
 91
  2455826
 92
 54000000
292
     0
 70
     2
 71
   256
280
     1
  0
SUN
  5
323
330
322
100
AcDbSun
 90
        1
290
     0
 63
     7
421
 16777215
 40
1.0
291
     1
 91
  2455826
 92
 54000000
292
     0
 70
     2
 71
   256
280
     1
  0
SUN
  5
325
330
324
100
AcDbSun
 90
        1
290
     0
 63
     7
421
 16777215
 40
1.0
291
     1
 91
  2455826
 92
 54000000
292
     0
 70
     2
 71
   256
280
     1
  0
SUN
  5
327
330
326
100
AcDbSun
 90
        1
290
     0
 63
     7
421
 16777215
 40
1.0
291
     1
 91
  2455826
 92
 54000000
292
     0
 70
     2
 71
   256
280
     1
  0
SUN
  5
329
330
328
100
AcDbSun
 90
        1
290
     0
 63
     7
421
 16777215
 40
1.0
291
     1
 91
  2455826
 92
 54000000
292
     0
 70
     2
 71
   256
280
     1
  0
SUN
  5
32B
330
32A
100
AcDbSun
 90
        1
290
     0
 63
     7
421
 16777215
 40
1.0
291
     1
 91
  2455826
 92
 54000000
292
     0
 70
     2
 71
   256
280
     1
  0
SUN
  5
32D
330
32C
100
AcDbSun
 90
        1
290
     0
 63
     7
421
 16777215
 40
1.0
291
     1
 91
  2455826
 92
 54000000
292
     0
 70
     2
 71
   256
280
     1
  0
SUN
  5
32F
330
32E
100
AcDbSun
 90
        1
290
     0
 63
     7
421
 16777215
 40
1.0
291
     1
 91
  2455826
 92
 54000000
292
     0
 70
     2
 71
   256
280
     1
  0
SUN
  5
331
330
330
100
AcDbSun
 90
        1
290
     0
 63
     7
421
 16777215
 40
1.0
291
     1
 91
  2455826
 92
 54000000
292
     0
 70
     2
 71
   256
280
     1
  0
SUN
  5
31F
330
31E
100
AcDbSun
 90
        1
290
     0
 63
     7
421
 16777215
 40
1.0
291
     1
 91
  2455826
 92
 54000000
292
     0
 70
     2
 71
   256
280
     1
  0
DICTIONARY
  5
339
102
{ACAD_REACTORS
330
C
102
}
330
C
100
AcDbDictionary
281
     1
  0
DICTIONARY
  5
D
102
{ACAD_REACTORS
330
C
102
}
330
C
100
AcDbDictionary
281
     1
  0
DICTIONARY
  5
1A
102
{ACAD_REACTORS
330
C
102
}
330
C
100
AcDbDictionary
281
     1
  3
_Dimetrisch
350
2BE
  3
_Isometrisch
350
1FC
  3
_Links
350
18F
  3
_Normal auf
350
19B
  3
_Oben
350
1E
  3
_Rechts
350
193
  3
_Rückseite
350
26
  3
_Trimetrisch
350
25D
  3
_Unten
350
12E
  3
_Vorderseite
350
197
  3
Model
350
22
  0
DICTIONARY
  5
43
102
{ACAD_REACTORS
330
C
102
}
330
C
100
AcDbDictionary
281
     1
  3
ByBlock
350
45
  3
ByLayer
350
44
  3
Global
350
46
  0
DICTIONARY
  5
6B
102
{ACAD_REACTORS
330
C
102
}
330
C
100
AcDbDictionary
281
     1
  3
Standard
350
6C
  0
DICTIONARY
  5
17
102
{ACAD_REACTORS
330
C
102
}
330
C
100
AcDbDictionary
281
     1
  3
Standard
350
18
  0
DICTIONARY
  5
19
102
{ACAD_REACTORS
330
C
102
}
330
C
100
AcDbDictionary
281
     1
  0
ACDBDICTIONARYWDFLT
  5
E
102
{ACAD_REACTORS
330
C
102
}
330
C
100
AcDbDictionary
281
     1
  3
Normal
350
F
100
AcDbDictionaryWithDefault
340
F
  0
DICTIONARY
  5
47
102
{ACAD_REACTORS
330
C
102
}
330
C
100
AcDbDictionary
281
     1
  3
A0
350
48
  3
A1
350
49
  3
A2
350
4A
  3
A3
350
4B
  3
A4
350
4C
  3
A5
350
4D
  3
A6
350
4E
  3
A7
350
4F
  3
A8
350
50
  3
A9
350
51
  3
B0
350
52
  3
B1
350
53
  3
B2
350
54
  3
B3
350
55
  3
B4
350
56
  3
B5
350
57
  3
B6
350
58
  3
B7
350
59
  3
B8
350
5A
  3
B9
350
5B
  3
C0
350
5C
  3
C1
350
5D
  3
C2
350
5E
  3
C3
350
5F
  3
C4
350
60
  3
C5
350
61
  3
C6
350
62
  3
C7
350
63
  3
C8
350
64
  3
C9
350
65
  3
D0
350
66
  3
D1
350
67
  3
D2
350
68
  0
DICTIONARY
  5
33A
102
{ACAD_REACTORS
330
C
102
}
330
C
100
AcDbDictionary
281
     1
  0
DICTIONARY
  5
69
102
{ACAD_REACTORS
330
C
102
}
330
C
100
AcDbDictionary
281
     1
  3
Standard
350
6A
  0
DICTIONARY
  5
2A
102
{ACAD_REACTORS
330
C
102
}
330
C
100
AcDbDictionary
281
     1
  3
2dWireframe
350
2F
  3
Basic
350
32
  3
Brighten
350
36
  3
ColorChange
350
3A
  3
Conceptual
350
34
  3
Dim
350
35
  3
EdgeColorOff
350
3D
  3
Facepattern
350
39
  3
Flat
350
2B
  3
FlatWithEdges
350
2C
  3
Gouraud
350
2D
  3
GouraudWithEdges
350
2E
  3
Hidden
350
31
  3
JitterOff
350
3B
  3
Linepattern
350
38
  3
OverhangOff
350
3C
  3
Realistic
350
33
  3
Shaded
350
42
  3
Shaded with edges
350
41
  3
Shades of Gray
350
3E
  3
Sketchy
350
3F
  3
Thicken
350
37
  3
Wireframe
350
30
  3
X-Ray
350
40
  0
XRECORD
  5
336
102
{ACAD_REACTORS
330
C
102
}
330
C
100
AcDbXrecord
280
     1
 90
        1
330
6A
  0
DICTIONARY
  5
332
102
{ACAD_REACTORS
330
C
102
}
330
C
100
AcDbDictionary
281
     1
  3
CANNOSCALE
350
333
  3
CENTEREXE
350
33B
  3
CENTERLTYPEFILE
350
33C
  3
CMLEADERSTYLE
350
338
  3
CTABLESTYLE
350
337
  0
LAYOUT
  5
2BE
102
{ACAD_REACTORS
330
1A
102
}
330
1A
100
AcDbPlotSettings
  1

  2
none_device
  4
ISO_A4_(210.00_x_297.00_MM)
  6

 40
7.5
 41
20.0
 42
7.5
 43
20.0
 44
210.0
 45
297.0
 46
0.0
 47
0.0
 48
0.0
 49
0.0
140
0.0
141
0.0
142
1.0
143
1.7707454361
 70
   688
 72
     1
 73
     1
 74
     1
  7

 75
     0
 76
     0
 77
     2
 78
   300
147
0.5647339135
148
-106.3771490535
149
-170.3227057221
100
AcDbLayout
  1
_Dimetrisch
 70
     1
 71
    10
 10
0.0
 20
0.0
 11
0.0
 21
0.0
 12
0.0
 22
0.0
 32
0.0
 14
0.0
 24
0.0
 34
0.0
 15
0.0
 25
0.0
 35
0.0
146
0.0
 13
0.0
 23
0.0
 33
0.0
 16
1.0
 26
0.0
 36
0.0
 17
0.0
 27
1.0
 37
0.0
 76
     0
330
2BD
331
330
  0
LAYOUT
  5
1FC
102
{ACAD_REACTORS
330
1A
102
}
330
1A
100
AcDbPlotSettings
  1

  2
none_device
  4
ISO_A4_(210.00_x_297.00_MM)
  6

 40
7.5
 41
20.0
 42
7.5
 43
20.0
 44
210.0
 45
297.0
 46
0.0
 47
0.0
 48
0.0
 49
0.0
140
0.0
141
0.0
142
1.0
143
1.7707454361
 70
   688
 72
     1
 73
     1
 74
     1
  7

 75
     0
 76
     0
 77
     2
 78
   300
147
0.5647339135
148
-106.3771490535
149
-170.3227057221
100
AcDbLayout
  1
_Isometrisch
 70
     1
 71
     8
 10
0.0
 20
0.0
 11
0.0
 21
0.0
 12
0.0
 22
0.0
 32
0.0
 14
0.0
 24
0.0
 34
0.0
 15
0.0
 25
0.0
 35
0.0
146
0.0
 13
0.0
 23
0.0
 33
0.0
 16
1.0
 26
0.0
 36
0.0
 17
0.0
 27
1.0
 37
0.0
 76
     0
330
1FB
331
32C
  0
LAYOUT
  5
18F
102
{ACAD_REACTORS
330
1A
102
}
330
1A
100
AcDbPlotSettings
  1

  2
none_device
  4
ISO_A4_(210.00_x_297.00_MM)
  6

 40
7.5
 41
20.0
 42
7.5
 43
20.0
 44
210.0
 45
297.0
 46
0.0
 47
0.0
 48
0.0
 49
0.0
140
0.0
141
0.0
142
1.0
143
1.7707454361
 70
   688
 72
     1
 73
     1
 74
     1
  7

 75
     0
 76
     0
 77
     2
 78
   300
147
0.5647339135
148
-106.3771490535
149
-170.3227057221
100
AcDbLayout
  1
_Links
 70
     1
 71
     4
 10
0.0
 20
0.0
 11
0.0
 21
0.0
 12
0.0
 22
0.0
 32
0.0
 14
0.0
 24
0.0
 34
0.0
 15
0.0
 25
0.0
 35
0.0
146
0.0
 13
0.0
 23
0.0
 33
0.0
 16
1.0
 26
0.0
 36
0.0
 17
0.0
 27
1.0
 37
0.0
 76
     0
330
18E
331
324
  0
LAYOUT
  5
19B
102
{ACAD_REACTORS
330
1A
102
}
330
1A
100
AcDbPlotSettings
  1

  2
none_device
  4
ISO_A4_(210.00_x_297.00_MM)
  6

 40
7.5
 41
20.0
 42
7.5
 43
20.0
 44
210.0
 45
297.0
 46
0.0
 47
0.0
 48
0.0
 49
0.0
140
0.0
141
0.0
142
1.0
143
1.7707454361
 70
   688
 72
     1
 73
     1
 74
     1
  7

 75
     0
 76
     0
 77
     2
 78
   300
147
0.5647339135
148
-106.3771490535
149
-170.3227057221
100
AcDbLayout
  1
_Normal auf
 70
     1
 71
     7
 10
0.0
 20
0.0
 11
0.0
 21
0.0
 12
0.0
 22
0.0
 32
0.0
 14
0.0
 24
0.0
 34
0.0
 15
0.0
 25
0.0
 35
0.0
146
0.0
 13
0.0
 23
0.0
 33
0.0
 16
1.0
 26
0.0
 36
0.0
 17
0.0
 27
1.0
 37
0.0
 76
     0
330
19A
331
32A
  0
LAYOUT
  5
1E
102
{ACAD_REACTORS
330
1A
102
}
330
1A
100
AcDbPlotSettings
  1

  2
none_device
  4
ISO_A4_(210.00_x_297.00_MM)
  6

 40
7.5
 41
20.0
 42
7.5
 43
20.0
 44
210.0
 45
297.0
 46
0.0
 47
0.0
 48
0.0
 49
0.0
140
0.0
141
0.0
142
1.0
143
1.7707454361
 70
   688
 72
     1
 73
     1
 74
     1
  7

 75
     0
 76
     0
 77
     2
 78
   300
147
0.5647339135
148
-106.3771490535
149
-170.3227057221
100
AcDbLayout
  1
_Oben
 70
     1
 71
     1
 10
70.962240331
 20
157.0421149512
 11
596.8736348597
 21
528.8986565371
 12
0.0
 22
0.0
 32
0.0
 14
106.3771490535
 24
170.3227057221
 34
0.0
 15
179.6322806154
 25
515.6180657662
 35
0.0
146
0.0
 13
0.0
 23
0.0
 33
0.0
 16
1.0
 26
0.0
 36
0.0
 17
0.0
 27
1.0
 37
0.0
 76
     0
330
1B
331
31E
  0
LAYOUT
  5
193
102
{ACAD_REACTORS
330
1A
102
}
330
1A
100
AcDbPlotSettings
  1

  2
none_device
  4
ISO_A4_(210.00_x_297.00_MM)
  6

 40
7.5
 41
20.0
 42
7.5
 43
20.0
 44
210.0
 45
297.0
 46
0.0
 47
0.0
 48
0.0
 49
0.0
140
0.0
141
0.0
142
1.0
143
1.7707454361
 70
   688
 72
     1
 73
     1
 74
     1
  7

 75
     0
 76
     0
 77
     2
 78
   300
147
0.5647339135
148
-106.3771490535
149
-170.3227057221
100
AcDbLayout
  1
_Rechts
 70
     1
 71
     5
 10
0.0
 20
0.0
 11
0.0
 21
0.0
 12
0.0
 22
0.0
 32
0.0
 14
0.0
 24
0.0
 34
0.0
 15
0.0
 25
0.0
 35
0.0
146
0.0
 13
0.0
 23
0.0
 33
0.0
 16
1.0
 26
0.0
 36
0.0
 17
0.0
 27
1.0
 37
0.0
 76
     0
330
192
331
326
  0
LAYOUT
  5
26
102
{ACAD_REACTORS
330
1A
102
}
330
1A
100
AcDbPlotSettings
  1

  2
none_device
  4
ISO_A4_(210.00_x_297.00_MM)
  6

 40
7.5
 41
20.0
 42
7.5
 43
20.0
 44
210.0
 45
297.0
 46
0.0
 47
0.0
 48
0.0
 49
0.0
140
0.0
141
0.0
142
1.0
143
1.7707454361
 70
   688
 72
     1
 73
     1
 74
     1
  7

 75
     0
 76
     0
 77
     2
 78
   300
147
0.5647339135
148
-106.3771490535
149
-170.3227057221
100
AcDbLayout
  1
_Rückseite
 70
     1
 71
     2
 10
0.0
 20
0.0
 11
0.0
 21
0.0
 12
0.0
 22
0.0
 32
0.0
 14
0.0
 24
0.0
 34
0.0
 15
0.0
 25
0.0
 35
0.0
146
0.0
 13
0.0
 23
0.0
 33
0.0
 16
1.0
 26
0.0
 36
0.0
 17
0.0
 27
1.0
 37
0.0
 76
     0
330
23
331
320
  0
LAYOUT
  5
25D
102
{ACAD_REACTORS
330
1A
102
}
330
1A
100
AcDbPlotSettings
  1

  2
none_device
  4
ISO_A4_(210.00_x_297.00_MM)
  6

 40
7.5
 41
20.0
 42
7.5
 43
20.0
 44
210.0
 45
297.0
 46
0.0
 47
0.0
 48
0.0
 49
0.0
140
0.0
141
0.0
142
1.0
143
1.7707454361
 70
   688
 72
     1
 73
     1
 74
     1
  7

 75
     0
 76
     0
 77
     2
 78
   300
147
0.5647339135
148
-106.3771490535
149
-170.3227057221
100
AcDbLayout
  1
_Trimetrisch
 70
     1
 71
     9
 10
0.0
 20
0.0
 11
0.0
 21
0.0
 12
0.0
 22
0.0
 32
0.0
 14
0.0
 24
0.0
 34
0.0
 15
0.0
 25
0.0
 35
0.0
146
0.0
 13
0.0
 23
0.0
 33
0.0
 16
1.0
 26
0.0
 36
0.0
 17
0.0
 27
1.0
 37
0.0
 76
     0
330
25C
331
32E
  0
LAYOUT
  5
12E
102
{ACAD_REACTORS
330
1A
102
}
330
1A
100
AcDbPlotSettings
  1

  2
none_device
  4
ISO_A4_(210.00_x_297.00_MM)
  6

 40
7.5
 41
20.0
 42
7.5
 43
20.0
 44
210.0
 45
297.0
 46
0.0
 47
0.0
 48
0.0
 49
0.0
140
0.0
141
0.0
142
1.0
143
1.7707454361
 70
   688
 72
     1
 73
     1
 74
     1
  7

 75
     0
 76
     0
 77
     2
 78
   300
147
0.5647339135
148
-106.3771490535
149
-170.3227057221
100
AcDbLayout
  1
_Unten
 70
     1
 71
     3
 10
0.0
 20
0.0
 11
0.0
 21
0.0
 12
0.0
 22
0.0
 32
0.0
 14
0.0
 24
0.0
 34
0.0
 15
0.0
 25
0.0
 35
0.0
146
0.0
 13
0.0
 23
0.0
 33
0.0
 16
1.0
 26
0.0
 36
0.0
 17
0.0
 27
1.0
 37
0.0
 76
     0
330
12D
331
322
  0
LAYOUT
  5
197
102
{ACAD_REACTORS
330
1A
102
}
330
1A
100
AcDbPlotSettings
  1

  2
none_device
  4
ISO_A4_(210.00_x_297.00_MM)
  6

 40
7.5
 41
20.0
 42
7.5
 43
20.0
 44
210.0
 45
297.0
 46
0.0
 47
0.0
 48
0.0
 49
0.0
140
0.0
141
0.0
142
1.0
143
1.7707454361
 70
   688
 72
     1
 73
     1
 74
     1
  7

 75
     0
 76
     0
 77
     2
 78
   300
147
0.5647339135
148
-106.3771490535
149
-170.3227057221
100
AcDbLayout
  1
_Vorderseite
 70
     1
 71
     6
 10
0.0
 20
0.0
 11
0.0
 21
0.0
 12
0.0
 22
0.0
 32
0.0
 14
0.0
 24
0.0
 34
0.0
 15
0.0
 25
0.0
 35
0.0
146
0.0
 13
0.0
 23
0.0
 33
0.0
 16
1.0
 26
0.0
 36
0.0
 17
0.0
 27
1.0
 37
0.0
 76
     0
330
196
331
328
  0
LAYOUT
  5
22
102
{ACAD_REACTORS
330
1A
102
}
330
1A
100
AcDbPlotSettings
  1

  2
none_device
  4
ANSI_A_(11.00_x_8.50_Inches)
  6

 40
6.35
 41
19.05
 42
6.35000508
 43
19.05000254
 44
279.4
 45
215.9
 46
44.8287652328
 47
-123.4018208195
 48
0.0
 49
0.0
140
0.0
141
0.0
142
0.0243704404
143
1.0
 70
  1696
 72
     0
 73
     0
 74
     0
  7

 75
     0
 76
     0
 77
     2
 78
   300
147
0.0179189148
148
-1300.4909072572
149
0.0
100
AcDbLayout
  1
Model
 70
     1
 71
     0
 10
0.0
 20
0.0
 11
420.0
 21
297.0
 12
0.0
 22
0.0
 32
0.0
 14
106.3771490535
 24
170.3227057221
 34
0.0
 15
179.6322806154
 25
515.6180657662
 35
0.0
146
0.0
 13
0.0
 23
0.0
 33
0.0
 16
1.0
 26
0.0
 36
0.0
 17
0.0
 27
1.0
 37
0.0
 76
     0
330
1F
331
29
  0
MATERIAL
  5
45
102
{ACAD_REACTORS
330
43
102
}
330
43
100
AcDbMaterial
  1
ByBlock
 72
     1
 94
      127
  0
MATERIAL
  5
44
102
{ACAD_REACTORS
330
43
102
}
330
43
100
AcDbMaterial
  1
ByLayer
 72
     1
 94
      127
  0
MATERIAL
  5
46
102
{ACAD_REACTORS
330
43
102
}
330
43
100
AcDbMaterial
  1
Global
 72
     1
 94
      127
  0
MLEADERSTYLE
  5
6C
102
{ACAD_REACTORS
330
6B
102
}
330
6B
100
AcDbMLeaderStyle
179
     2
170
     2
171
     1
172
     0
 90
        2
 40
0.0
 41
0.0
173
     1
 91
-1056964608
340
14
 92
       -2
290
     1
 42
2.0
291
     1
 43
8.0
  3
Standard
341
0
 44
4.0
300

342
11
174
     1
178
     6
175
     1
176
     0
 93
-1056964608
 45
4.0
292
     0
297
     0
 46
4.0
343
0
 94
-1056964608
 47
1.0
 49
1.0
140
1.0
293
     1
141
0.0
294
     1
177
     0
142
1.0
295
     0
296
     0
143
3.75
271
     0
272
     9
273
     9
298
     0
  0
MLINESTYLE
  5
18
102
{ACAD_REACTORS
330
17
102
}
330
17
100
AcDbMlineStyle
  2
Standard
 70
     0
  3

 62
   256
 51
90.0
 52
90.0
 71
     2
 49
0.5
 62
   256
  6
BYLAYER
 49
-0.5
 62
   256
  6
BYLAYER
  0
ACDBPLACEHOLDER
  5
F
102
{ACAD_REACTORS
330
E
102
}
330
E
  0
SCALE
  5
48
102
{ACAD_REACTORS
330
47
102
}
330
47
100
AcDbScale
 70
     0
300
1:1
140
1.0
141
1.0
290
     1
  0
SCALE
  5
49
102
{ACAD_REACTORS
330
47
102
}
330
47
100
AcDbScale
 70
     0
300
1:2
140
1.0
141
2.0
290
     0
  0
SCALE
  5
4A
102
{ACAD_REACTORS
330
47
102
}
330
47
100
AcDbScale
 70
     0
300
1:4
140
1.0
141
4.0
290
     0
  0
SCALE
  5
4B
102
{ACAD_REACTORS
330
47
102
}
330
47
100
AcDbScale
 70
     0
300
1:5
140
1.0
141
5.0
290
     0
  0
SCALE
  5
4C
102
{ACAD_REACTORS
330
47
102
}
330
47
100
AcDbScale
 70
     0
300
1:8
140
1.0
141
8.0
290
     0
  0
SCALE
  5
4D
102
{ACAD_REACTORS
330
47
102
}
330
47
100
AcDbScale
 70
     0
300
1:10
140
1.0
141
10.0
290
     0
  0
SCALE
  5
4E
102
{ACAD_REACTORS
330
47
102
}
330
47
100
AcDbScale
 70
     0
300
1:16
140
1.0
141
16.0
290
     0
  0
SCALE
  5
4F
102
{ACAD_REACTORS
330
47
102
}
330
47
100
AcDbScale
 70
     0
300
1:20
140
1.0
141
20.0
290
     0
  0
SCALE
  5
50
102
{ACAD_REACTORS
330
47
102
}
330
47
100
AcDbScale
 70
     0
300
1:30
140
1.0
141
30.0
290
     0
  0
SCALE
  5
51
102
{ACAD_REACTORS
330
47
102
}
330
47
100
AcDbScale
 70
     0
300
1:40
140
1.0
141
40.0
290
     0
  0
SCALE
  5
52
102
{ACAD_REACTORS
330
47
102
}
330
47
100
AcDbScale
 70
     0
300
1:50
140
1.0
141
50.0
290
     0
  0
SCALE
  5
53
102
{ACAD_REACTORS
330
47
102
}
330
47
100
AcDbScale
 70
     0
300
1:100
140
1.0
141
100.0
290
     0
  0
SCALE
  5
54
102
{ACAD_REACTORS
330
47
102
}
330
47
100
AcDbScale
 70
     0
300
2:1
140
2.0
141
1.0
290
     0
  0
SCALE
  5
55
102
{ACAD_REACTORS
330
47
102
}
330
47
100
AcDbScale
 70
     0
300
4:1
140
4.0
141
1.0
290
     0
  0
SCALE
  5
56
102
{ACAD_REACTORS
330
47
102
}
330
47
100
AcDbScale
 70
     0
300
8:1
140
8.0
141
1.0
290
     0
  0
SCALE
  5
57
102
{ACAD_REACTORS
330
47
102
}
330
47
100
AcDbScale
 70
     0
300
10:1
140
10.0
141
1.0
290
     0
  0
SCALE
  5
58
102
{ACAD_REACTORS
330
47
102
}
330
47
100
AcDbScale
 70
     0
300
100:1
140
100.0
141
1.0
290
     0
  0
SCALE
  5
59
102
{ACAD_REACTORS
330
47
102
}
330
47
100
AcDbScale
 70
     0
300
1/128" = 1'-0"
140
0.0078125
141
12.0
290
     0
  0
SCALE
  5
5A
102
{ACAD_REACTORS
330
47
102
}
330
47
100
AcDbScale
 70
     0
300
1/64" = 1'-0"
140
0.015625
141
12.0
290
     0
  0
SCALE
  5
5B
102
{ACAD_REACTORS
330
47
102
}
330
47
100
AcDbScale
 70
     0
300
1/32" = 1'-0"
140
0.03125
141
12.0
290
     0
  0
SCALE
  5
5C
102
{ACAD_REACTORS
330
47
102
}
330
47
100
AcDbScale
 70
     0
300
1/16" = 1'-0"
140
0.0625
141
12.0
290
     0
  0
SCALE
  5
5D
102
{ACAD_REACTORS
330
47
102
}
330
47
100
AcDbScale
 70
     0
300
3/32" = 1'-0"
140
0.09375
141
12.0
290
     0
  0
SCALE
  5
5E
102
{ACAD_REACTORS
330
47
102
}
330
47
100
AcDbScale
 70
     0
300
1/8" = 1'-0"
140
0.125
141
12.0
290
     0
  0
SCALE
  5
5F
102
{ACAD_REACTORS
330
47
102
}
330
47
100
AcDbScale
 70
     0
300
3/16" = 1'-0"
140
0.1875
141
12.0
290
     0
  0
SCALE
  5
60
102
{ACAD_REACTORS
330
47
102
}
330
47
100
AcDbScale
 70
     0
300
1/4" = 1'-0"
140
0.25
141
12.0
290
     0
  0
SCALE
  5
61
102
{ACAD_REACTORS
330
47
102
}
330
47
100
AcDbScale
 70
     0
300
3/8" = 1'-0"
140
0.375
141
12.0
290
     0
  0
SCALE
  5
62
102
{ACAD_REACTORS
330
47
102
}
330
47
100
AcDbScale
 70
     0
300
1/2" = 1'-0"
140
0.5
141
12.0
290
     0
  0
SCALE
  5
63
102
{ACAD_REACTORS
330
47
102
}
330
47
100
AcDbScale
 70
     0
300
3/4" = 1'-0"
140
0.75
141
12.0
290
     0
  0
SCALE
  5
64
102
{ACAD_REACTORS
330
47
102
}
330
47
100
AcDbScale
 70
     0
300
1" = 1'-0"
140
1.0
141
12.0
290
     0
  0
SCALE
  5
65
102
{ACAD_REACTORS
330
47
102
}
330
47
100
AcDbScale
 70
     0
300
1-1/2" = 1'-0"
140
1.5
141
12.0
290
     0
  0
SCALE
  5
66
102
{ACAD_REACTORS
330
47
102
}
330
47
100
AcDbScale
 70
     0
300
3" = 1'-0"
140
3.0
141
12.0
290
     0
  0
SCALE
  5
67
102
{ACAD_REACTORS
330
47
102
}
330
47
100
AcDbScale
 70
     0
300
6" = 1'-0"
140
6.0
141
12.0
290
     0
  0
SCALE
  5
68
102
{ACAD_REACTORS
330
47
102
}
330
47
100
AcDbScale
 70
     0
300
1'-0" = 1'-0"
140
12.0
141
12.0
290
     0
  0
TABLESTYLE
  5
6A
102
{ACAD_REACTORS
330
69
102
}
102
{ACAD_XDICTIONARY
360
334
102
}
330
69
100
AcDbTableStyle
  3
Standard
 70
     0
 71
     0
 40
0.06
 41
0.06
280
     0
281
     0
  7
Standard
140
4.5
170
     2
 62
     0
 63
   257
283
     0
 90
        4
 91
        0
  1

274
    -2
284
     1
 64
     0
275
    -2
285
     1
 65
     0
276
    -2
286
     1
 66
     0
277
    -2
287
     1
 67
     0
278
    -2
288
     1
 68
     0
279
    -2
289
     1
 69
     0
  7
Standard
140
6.0
170
     5
 62
     0
 63
   257
283
     0
 90
        4
 91
        0
  1

274
    -2
284
     1
 64
     0
275
    -2
285
     1
 65
     0
276
    -2
286
     1
 66
     0
277
    -2
287
     1
 67
     0
278
    -2
288
     1
 68
     0
279
    -2
289
     1
 69
     0
  7
Standard
140
4.5
170
     5
 62
     0
 63
   257
283
     0
 90
        4
 91
        0
  1

274
    -2
284
     1
 64
     0
275
    -2
285
     1
 65
     0
276
    -2
286
     1
 66
     0
277
    -2
287
     1
 67
     0
278
    -2
288
     1
 68
     0
279
    -2
289
     1
 69
     0
  0
VISUALSTYLE
  5
2F
102
{ACAD_REACTORS
330
2A
102
}
330
2A
100
AcDbVisualStyle
  2
2dWireframe
 70
     4
177
     3
291
     0
 70
    58
 90
        0
176
     1
 90
        2
176
     1
 90
        0
176
     1
 90
        0
176
     1
 40
0.6
176
     1
 40
30.0
176
     1
 62
     7
420
 16777215
176
     1
 90
        1
176
     1
 90
        4
176
     1
 62
     7
176
     1
 62
   257
176
     1
 90
        1
176
     1
 90
        1
176
     1
 40
1.0
176
     1
 90
        0
176
     1
 62
   257
176
     1
 40
1.0
176
     1
 90
        1
176
     1
 90
        6
176
     1
 90
        2
176
     1
 62
     7
176
     1
 90
        5
176
     1
 90
        0
176
     1
 90
        0
176
     1
290
     0
176
     1
 90
        1
176
     1
 40
0.0
176
     1
 90
        0
176
     1
290
     1
176
     1
290
     1
176
     1
290
     0
176
     1
290
     0
176
     1
290
     0
176
     1
290
     0
176
     1
290
     0
176
     1
290
     0
176
     1
290
     0
176
     1
 90
       50
176
     1
 40
0.0
176
     1
 40
1.0
176
     1
 90
        0
176
     1
 62
    18
420
        0
176
     1
 90
       50
176
     1
 90
        3
176
     1
 62
     5
420
      255
176
     1
290
     0
176
     1
 90
       50
176
     1
 90
       50
176
     1
 90
       50
176
     1
290
     0
176
     1
 90
       50
176
     1
 62
   256
176
     0
 40
1.0
176
     0
 90
        2
176
     1
  1
strokes_ogs.tif
176
     1
290
     0
176
     1
 40
1.0
176
     1
 40
1.0
176
     1
  0
VISUALSTYLE
  5
32
102
{ACAD_REACTORS
330
2A
102
}
330
2A
100
AcDbVisualStyle
  2
Basic
 70
     7
177
     3
291
     1
 70
    58
 90
        1
176
     1
 90
        0
176
     1
 90
        1
176
     1
 90
        0
176
     1
 40
0.6
176
     1
 40
30.0
176
     1
 62
     7
420
 16777215
176
     1
 90
        0
176
     1
 90
        4
176
     1
 62
     7
176
     1
 62
   257
176
     1
 90
        1
176
     1
 90
        1
176
     1
 40
1.0
176
     1
 90
        8
176
     1
 62
     7
176
     1
 40
1.0
176
     1
 90
        1
176
     1
 90
        6
176
     1
 90
        2
176
     1
 62
     7
176
     1
 90
        5
176
     1
 90
        0
176
     1
 90
        0
176
     1
290
     0
176
     1
 90
        1
176
     1
 40
0.0
176
     1
 90
        0
176
     1
290
     0
176
     1
290
     1
176
     1
290
     1
176
     1
290
     0
176
     1
290
     0
176
     1
290
     0
176
     1
290
     0
176
     1
290
     0
176
     1
290
     0
176
     1
 90
       50
176
     1
 40
0.0
176
     1
 40
1.0
176
     1
 90
        0
176
     1
 62
    18
420
        0
176
     1
 90
       50
176
     1
 90
        3
176
     1
 62
     5
420
      255
176
     1
290
     0
176
     1
 90
       50
176
     1
 90
       50
176
     1
 90
       50
176
     1
290
     0
176
     1
 90
       50
176
     1
 62
   256
176
     0
 40
1.0
176
     0
 90
        2
176
     1
  1
strokes_ogs.tif
176
     1
290
     0
176
     1
 40
1.0
176
     1
 40
1.0
176
     1
  0
VISUALSTYLE
  5
36
102
{ACAD_REACTORS
330
2A
102
}
330
2A
100
AcDbVisualStyle
  2
Brighten
 70
    12
177
     3
291
     1
 70
    58
 90
        2
176
     1
 90
        2
176
     1
 90
        0
176
     1
 90
        0
176
     1
 40
0.6
176
     1
 40
30.0
176
     1
 62
     7
420
 16777215
176
     1
 90
        1
176
     1
 90
        4
176
     1
 62
     7
176
     1
 62
   257
176
     1
 90
        1
176
     1
 90
        1
176
     1
 40
1.0
176
     1
 90
        8
176
     1
 62
     7
176
     1
 40
1.0
176
     1
 90
        1
176
     1
 90
        6
176
     1
 90
        2
176
     1
 62
     7
176
     1
 90
        5
176
     1
 90
        0
176
     1
 90
        0
176
     1
290
     0
176
     1
 90
        1
176
     1
 40
50.0
176
     1
 90
        0
176
     1
290
     0
176
     1
290
     1
176
     1
290
     1
176
     1
290
     0
176
     1
290
     0
176
     1
290
     0
176
     1
290
     0
176
     1
290
     0
176
     1
290
     0
176
     1
 90
       50
176
     1
 40
0.0
176
     1
 40
1.0
176
     1
 90
        0
176
     1
 62
    18
420
        0
176
     1
 90
       50
176
     1
 90
        3
176
     1
 62
     5
420
      255
176
     1
290
     0
176
     1
 90
       50
176
     1
 90
       50
176
     1
 90
       50
176
     1
290
     0
176
     1
 90
       50
176
     1
 62
   256
176
     0
 40
1.0
176
     0
 90
        2
176
     1
  1
strokes_ogs.tif
176
     1
290
     0
176
     1
 40
1.0
176
     1
 40
1.0
176
     1
  0
VISUALSTYLE
  5
3A
102
{ACAD_REACTORS
330
2A
102
}
330
2A
100
AcDbVisualStyle
  2
ColorChange
 70
    16
177
     3
291
     1
 70
    58
 90
        2
176
     1
 90
        2
176
     1
 90
        3
176
     1
 90
        0
176
     1
 40
0.6
176
     1
 40
30.0
176
     1
 62
     8
420
  8421504
176
     1
 90
        1
176
     1
 90
        4
176
     1
 62
     7
176
     1
 62
   257
176
     1
 90
        1
176
     1
 90
        1
176
     1
 40
1.0
176
     1
 90
        8
176
     1
 62
     8
420
  8421504
176
     1
 40
1.0
176
     1
 90
        1
176
     1
 90
        6
176
     1
 90
        2
176
     1
 62
     7
176
     1
 90
        5
176
     1
 90
        0
176
     1
 90
        0
176
     1
290
     0
176
     1
 90
        1
176
     1
 40
0.0
176
     1
 90
        0
176
     1
290
     0
176
     1
290
     1
176
     1
290
     1
176
     1
290
     0
176
     1
290
     0
176
     1
290
     0
176
     1
290
     0
176
     1
290
     0
176
     1
290
     0
176
     1
 90
       50
176
     1
 40
0.0
176
     1
 40
1.0
176
     1
 90
        0
176
     1
 62
    18
420
        0
176
     1
 90
       50
176
     1
 90
        3
176
     1
 62
     5
420
      255
176
     1
290
     0
176
     1
 90
       50
176
     1
 90
       50
176
     1
 90
       50
176
     1
290
     0
176
     1
 90
       50
176
     1
 62
   256
176
     0
 40
1.0
176
     0
 90
        2
176
     1
  1
strokes_ogs.tif
176
     1
290
     0
176
     1
 40
1.0
176
     1
 40
1.0
176
     1
  0
VISUALSTYLE
  5
34
102
{ACAD_REACTORS
330
2A
102
}
330
2A
100
AcDbVisualStyle
  2
Conceptual
 70
     9
177
     3
291
     0
 70
    58
 90
        3
176
     1
 90
        2
176
     1
 90
        0
176
     1
 90
        0
176
     1
 40
0.6
176
     1
 40
30.0
176
     1
 62
     7
420
 16777215
176
     1
 90
        2
176
     1
 90
        2
176
     1
 62
     7
176
     1
 62
   257
176
     1
 90
        1
176
     1
 90
        1
176
     1
 40
179.0
176
     1
 90
        8
176
     1
 62
     7
176
     1
 40
1.0
176
     1
 90
        1
176
     1
 90
        6
176
     1
 90
        2
176
     1
 62
     7
176
     1
 90
        3
176
     1
 90
        0
176
     1
 90
        0
176
     1
290
     0
176
     1
 90
        1
176
     1
 40
0.0
176
     1
 90
        0
176
     1
290
     0
176
     1
290
     1
176
     1
290
     1
176
     1
290
     0
176
     1
290
     0
176
     1
290
     0
176
     1
290
     0
176
     1
290
     0
176
     1
290
     0
176
     1
 90
       50
176
     1
 40
0.0
176
     1
 40
1.0
176
     1
 90
        0
176
     1
 62
    18
420
        0
176
     1
 90
       50
176
     1
 90
        3
176
     1
 62
     5
420
      255
176
     1
290
     0
176
     1
 90
       50
176
     1
 90
       50
176
     1
 90
       50
176
     1
290
     0
176
     1
 90
       50
176
     1
 62
   256
176
     0
 40
1.0
176
     0
 90
        2
176
     1
  1
strokes_ogs.tif
176
     1
290
     0
176
     1
 40
1.0
176
     1
 40
1.0
176
     1
  0
VISUALSTYLE
  5
35
102
{ACAD_REACTORS
330
2A
102
}
330
2A
100
AcDbVisualStyle
  2
Dim
 70
    11
177
     3
291
     1
 70
    58
 90
        2
176
     1
 90
        2
176
     1
 90
        0
176
     1
 90
        0
176
     1
 40
0.6
176
     1
 40
30.0
176
     1
 62
     7
420
 16777215
176
     1
 90
        1
176
     1
 90
        4
176
     1
 62
     7
176
     1
 62
   257
176
     1
 90
        1
176
     1
 90
        1
176
     1
 40
1.0
176
     1
 90
        8
176
     1
 62
     7
176
     1
 40
1.0
176
     1
 90
        1
176
     1
 90
        6
176
     1
 90
        2
176
     1
 62
     7
176
     1
 90
        5
176
     1
 90
        0
176
     1
 90
        0
176
     1
290
     0
176
     1
 90
        1
176
     1
 40
-50.0
176
     1
 90
        0
176
     1
290
     0
176
     1
290
     1
176
     1
290
     1
176
     1
290
     0
176
     1
290
     0
176
     1
290
     0
176
     1
290
     0
176
     1
290
     0
176
     1
290
     0
176
     1
 90
       50
176
     1
 40
0.0
176
     1
 40
1.0
176
     1
 90
        0
176
     1
 62
    18
420
        0
176
     1
 90
       50
176
     1
 90
        3
176
     1
 62
     5
420
      255
176
     1
290
     0
176
     1
 90
       50
176
     1
 90
       50
176
     1
 90
       50
176
     1
290
     0
176
     1
 90
       50
176
     1
 62
   256
176
     0
 40
1.0
176
     0
 90
        2
176
     1
  1
strokes_ogs.tif
176
     1
290
     0
176
     1
 40
1.0
176
     1
 40
1.0
176
     1
  0
VISUALSTYLE
  5
3D
102
{ACAD_REACTORS
330
2A
102
}
330
2A
100
AcDbVisualStyle
  2
EdgeColorOff
 70
    22
177
     3
291
     1
 70
    58
 90
        2
176
     0
 90
        2
176
     0
 90
        0
176
     0
 90
        0
176
     0
 40
0.6
176
     0
 40
30.0
176
     0
 62
     7
420
 16777215
176
     0
 90
        1
176
     0
 90
        4
176
     0
 62
     7
176
     0
 62
   257
176
     0
 90
        1
176
     0
 90
        1
176
     0
 40
1.0
176
     0
 90
        8
176
     2
 62
     7
176
     0
 40
1.0
176
     0
 90
        1
176
     0
 90
        6
176
     0
 90
        2
176
     0
 62
     7
176
     0
 90
        5
176
     0
 90
        0
176
     0
 90
        0
176
     0
290
     0
176
     0
 90
        1
176
     0
 40
0.0
176
     0
 90
        0
176
     0
290
     0
176
     0
290
     1
176
     0
290
     1
176
     0
290
     0
176
     0
290
     0
176
     0
290
     0
176
     0
290
     0
176
     0
290
     0
176
     0
290
     0
176
     0
 90
       50
176
     0
 40
0.0
176
     0
 40
1.0
176
     0
 90
        0
176
     0
 62
    18
420
        0
176
     0
 90
       50
176
     0
 90
        3
176
     0
 62
     5
420
      255
176
     0
290
     0
176
     0
 90
       50
176
     0
 90
       50
176
     0
 90
       50
176
     0
290
     0
176
     0
 90
       50
176
     0
 62
   256
176
     0
 40
1.0
176
     0
 90
        2
176
     0
  1
strokes_ogs.tif
176
     0
290
     0
176
     0
 40
1.0
176
     0
 40
1.0
176
     0
  0
VISUALSTYLE
  5
39
102
{ACAD_REACTORS
330
2A
102
}
330
2A
100
AcDbVisualStyle
  2
Facepattern
 70
    15
177
     3
291
     1
 70
    58
 90
        2
176
     1
 90
        2
176
     1
 90
        0
176
     1
 90
        0
176
     1
 40
0.6
176
     1
 40
30.0
176
     1
 62
     7
420
 16777215
176
     1
 90
        1
176
     1
 90
        4
176
     1
 62
     7
176
     1
 62
   257
176
     1
 90
        1
176
     1
 90
        1
176
     1
 40
1.0
176
     1
 90
        8
176
     1
 62
     7
176
     1
 40
1.0
176
     1
 90
        1
176
     1
 90
        6
176
     1
 90
        2
176
     1
 62
     7
176
     1
 90
        5
176
     1
 90
        0
176
     1
 90
        0
176
     1
290
     0
176
     1
 90
        1
176
     1
 40
0.0
176
     1
 90
        0
176
     1
290
     0
176
     1
290
     1
176
     1
290
     1
176
     1
290
     0
176
     1
290
     0
176
     1
290
     0
176
     1
290
     0
176
     1
290
     0
176
     1
290
     0
176
     1
 90
       50
176
     1
 40
0.0
176
     1
 40
1.0
176
     1
 90
        0
176
     1
 62
    18
420
        0
176
     1
 90
       50
176
     1
 90
        3
176
     1
 62
     5
420
      255
176
     1
290
     0
176
     1
 90
       50
176
     1
 90
       50
176
     1
 90
       50
176
     1
290
     0
176
     1
 90
       50
176
     1
 62
   256
176
     0
 40
1.0
176
     0
 90
        2
176
     1
  1
strokes_ogs.tif
176
     1
290
     0
176
     1
 40
1.0
176
     1
 40
1.0
176
     1
  0
VISUALSTYLE
  5
2B
102
{ACAD_REACTORS
330
2A
102
}
330
2A
100
AcDbVisualStyle
  2
Flat
 70
     0
177
     3
291
     1
 70
    58
 90
        2
176
     1
 90
        1
176
     1
 90
        1
176
     1
 90
        2
176
     1
 40
0.6
176
     1
 40
30.0
176
     1
 62
     7
420
 16777215
176
     1
 90
        0
176
     1
 90
        0
176
     1
 62
     7
176
     1
 62
   257
176
     1
 90
        1
176
     1
 90
        1
176
     1
 40
1.0
176
     1
 90
        8
176
     1
 62
     7
176
     1
 40
1.0
176
     1
 90
        1
176
     1
 90
        6
176
     1
 90
        2
176
     1
 62
     7
176
     1
 90
        5
176
     1
 90
        0
176
     1
 90
        0
176
     1
290
     0
176
     1
 90
       13
176
     1
 40
0.0
176
     1
 90
        0
176
     1
290
     0
176
     1
290
     1
176
     1
290
     1
176
     1
290
     0
176
     1
290
     0
176
     1
290
     0
176
     1
290
     0
176
     1
290
     0
176
     1
290
     0
176
     1
 90
       50
176
     1
 40
0.0
176
     1
 40
1.0
176
     1
 90
        0
176
     1
 62
    18
420
        0
176
     1
 90
       50
176
     1
 90
        3
176
     1
 62
     5
420
      255
176
     1
290
     0
176
     1
 90
       50
176
     1
 90
       50
176
     1
 90
       50
176
     1
290
     0
176
     1
 90
       50
176
     1
 62
   256
176
     0
 40
1.0
176
     0
 90
        2
176
     1
  1
strokes_ogs.tif
176
     1
290
     0
176
     1
 40
1.0
176
     1
 40
1.0
176
     1
  0
VISUALSTYLE
  5
2C
102
{ACAD_REACTORS
330
2A
102
}
330
2A
100
AcDbVisualStyle
  2
FlatWithEdges
 70
     1
177
     3
291
     1
 70
    58
 90
        2
176
     1
 90
        1
176
     1
 90
        1
176
     1
 90
        2
176
     1
 40
0.6
176
     1
 40
30.0
176
     1
 62
     7
420
 16777215
176
     1
 90
        1
176
     1
 90
        0
176
     1
 62
     7
176
     1
 62
   257
176
     1
 90
        1
176
     1
 90
        1
176
     1
 40
1.0
176
     1
 90
        0
176
     1
 62
   257
176
     1
 40
1.0
176
     1
 90
        1
176
     1
 90
        6
176
     1
 90
        2
176
     1
 62
     7
176
     1
 90
        5
176
     1
 90
        0
176
     1
 90
        0
176
     1
290
     0
176
     1
 90
       13
176
     1
 40
0.0
176
     1
 90
        0
176
     1
290
     0
176
     1
290
     1
176
     1
290
     1
176
     1
290
     0
176
     1
290
     0
176
     1
290
     0
176
     1
290
     0
176
     1
290
     0
176
     1
290
     0
176
     1
 90
       50
176
     1
 40
0.0
176
     1
 40
1.0
176
     1
 90
        0
176
     1
 62
    18
420
        0
176
     1
 90
       50
176
     1
 90
        3
176
     1
 62
     5
420
      255
176
     1
290
     0
176
     1
 90
       50
176
     1
 90
       50
176
     1
 90
       50
176
     1
290
     0
176
     1
 90
       50
176
     1
 62
   256
176
     0
 40
1.0
176
     0
 90
        2
176
     1
  1
strokes_ogs.tif
176
     1
290
     0
176
     1
 40
1.0
176
     1
 40
1.0
176
     1
  0
VISUALSTYLE
  5
2D
102
{ACAD_REACTORS
330
2A
102
}
330
2A
100
AcDbVisualStyle
  2
Gouraud
 70
     2
177
     3
291
     1
 70
    58
 90
        2
176
     1
 90
        2
176
     1
 90
        1
176
     1
 90
        2
176
     1
 40
0.6
176
     1
 40
30.0
176
     1
 62
     7
420
 16777215
176
     1
 90
        0
176
     1
 90
        0
176
     1
 62
     7
176
     1
 62
   257
176
     1
 90
        1
176
     1
 90
        1
176
     1
 40
1.0
176
     1
 90
        0
176
     1
 62
     7
176
     1
 40
1.0
176
     1
 90
        1
176
     1
 90
        6
176
     1
 90
        2
176
     1
 62
     7
176
     1
 90
        5
176
     1
 90
        0
176
     1
 90
        0
176
     1
290
     0
176
     1
 90
       13
176
     1
 40
0.0
176
     1
 90
        0
176
     1
290
     0
176
     1
290
     1
176
     1
290
     1
176
     1
290
     0
176
     1
290
     0
176
     1
290
     0
176
     1
290
     0
176
     1
290
     0
176
     1
290
     0
176
     1
 90
       50
176
     1
 40
0.0
176
     1
 40
1.0
176
     1
 90
        0
176
     1
 62
    18
420
        0
176
     1
 90
       50
176
     1
 90
        3
176
     1
 62
     5
420
      255
176
     1
290
     0
176
     1
 90
       50
176
     1
 90
       50
176
     1
 90
       50
176
     1
290
     0
176
     1
 90
       50
176
     1
 62
   256
176
     0
 40
1.0
176
     0
 90
        2
176
     1
  1
strokes_ogs.tif
176
     1
290
     0
176
     1
 40
1.0
176
     1
 40
1.0
176
     1
  0
VISUALSTYLE
  5
2E
102
{ACAD_REACTORS
330
2A
102
}
330
2A
100
AcDbVisualStyle
  2
GouraudWithEdges
 70
     3
177
     3
291
     1
 70
    58
 90
        2
176
     1
 90
        2
176
     1
 90
        1
176
     1
 90
        2
176
     1
 40
0.6
176
     1
 40
30.0
176
     1
 62
     7
420
 16777215
176
     1
 90
        1
176
     1
 90
        0
176
     1
 62
     7
176
     1
 62
   257
176
     1
 90
        1
176
     1
 90
        1
176
     1
 40
1.0
176
     1
 90
        0
176
     1
 62
   257
176
     1
 40
1.0
176
     1
 90
        1
176
     1
 90
        6
176
     1
 90
        2
176
     1
 62
     7
176
     1
 90
        5
176
     1
 90
        0
176
     1
 90
        0
176
     1
290
     0
176
     1
 90
       13
176
     1
 40
0.0
176
     1
 90
        0
176
     1
290
     0
176
     1
290
     1
176
     1
290
     1
176
     1
290
     0
176
     1
290
     0
176
     1
290
     0
176
     1
290
     0
176
     1
290
     0
176
     1
290
     0
176
     1
 90
       50
176
     1
 40
0.0
176
     1
 40
1.0
176
     1
 90
        0
176
     1
 62
    18
420
        0
176
     1
 90
       50
176
     1
 90
        3
176
     1
 62
     5
420
      255
176
     1
290
     0
176
     1
 90
       50
176
     1
 90
       50
176
     1
 90
       50
176
     1
290
     0
176
     1
 90
       50
176
     1
 62
   256
176
     0
 40
1.0
176
     0
 90
        2
176
     1
  1
strokes_ogs.tif
176
     1
290
     0
176
     1
 40
1.0
176
     1
 40
1.0
176
     1
  0
VISUALSTYLE
  5
31
102
{ACAD_REACTORS
330
2A
102
}
330
2A
100
AcDbVisualStyle
  2
Hidden
 70
     6
177
     3
291
     0
 70
    58
 90
        1
176
     1
 90
        2
176
     1
 90
        2
176
     1
 90
        0
176
     1
 40
0.6
176
     1
 40
30.0
176
     1
 62
     7
420
 16777215
176
     1
 90
        2
176
     1
 90
        2
176
     1
 62
     7
176
     1
 62
   257
176
     1
 90
        2
176
     1
 90
        1
176
     1
 40
40.0
176
     1
 90
        0
176
     1
 62
   257
176
     1
 40
1.0
176
     1
 90
        1
176
     1
 90
        6
176
     1
 90
        2
176
     1
 62
     7
176
     1
 90
        3
176
     1
 90
        0
176
     1
 90
        0
176
     1
290
     0
176
     1
 90
        1
176
     1
 40
0.0
176
     1
 90
        0
176
     1
290
     0
176
     1
290
     1
176
     1
290
     1
176
     1
290
     0
176
     1
290
     0
176
     1
290
     0
176
     1
290
     0
176
     1
290
     0
176
     1
290
     0
176
     1
 90
       50
176
     1
 40
0.0
176
     1
 40
1.0
176
     1
 90
        0
176
     1
 62
    18
420
        0
176
     1
 90
       50
176
     1
 90
        3
176
     1
 62
     5
420
      255
176
     1
290
     0
176
     1
 90
       50
176
     1
 90
       50
176
     1
 90
       50
176
     1
290
     0
176
     1
 90
       50
176
     1
 62
   256
176
     0
 40
1.0
176
     0
 90
        2
176
     1
  1
strokes_ogs.tif
176
     1
290
     0
176
     1
 40
1.0
176
     1
 40
1.0
176
     1
  0
VISUALSTYLE
  5
3B
102
{ACAD_REACTORS
330
2A
102
}
330
2A
100
AcDbVisualStyle
  2
JitterOff
 70
    20
177
     3
291
     1
 70
    58
 90
        2
176
     0
 90
        2
176
     0
 90
        0
176
     0
 90
        0
176
     0
 40
0.6
176
     0
 40
30.0
176
     0
 62
     7
420
 16777215
176
     0
 90
        1
176
     0
 90
        4
176
     0
 62
     7
176
     0
 62
   257
176
     0
 90
        1
176
     0
 90
        1
176
     0
 40
1.0
176
     0
 90
       10
176
     2
 62
     7
176
     0
 40
1.0
176
     0
 90
        1
176
     0
 90
        6
176
     0
 90
        2
176
     0
 62
     7
176
     0
 90
        5
176
     0
 90
        0
176
     0
 90
        0
176
     0
290
     0
176
     0
 90
        1
176
     0
 40
0.0
176
     0
 90
        0
176
     0
290
     0
176
     0
290
     1
176
     0
290
     1
176
     0
290
     0
176
     0
290
     0
176
     0
290
     0
176
     0
290
     0
176
     0
290
     0
176
     0
290
     0
176
     0
 90
       50
176
     0
 40
0.0
176
     0
 40
1.0
176
     0
 90
        0
176
     0
 62
    18
420
        0
176
     0
 90
       50
176
     0
 90
        3
176
     0
 62
     5
420
      255
176
     0
290
     0
176
     0
 90
       50
176
     0
 90
       50
176
     0
 90
       50
176
     0
290
     0
176
     0
 90
       50
176
     0
 62
   256
176
     0
 40
1.0
176
     0
 90
        2
176
     0
  1
strokes_ogs.tif
176
     0
290
     0
176
     0
 40
1.0
176
     0
 40
1.0
176
     0
  0
VISUALSTYLE
  5
38
102
{ACAD_REACTORS
330
2A
102
}
330
2A
100
AcDbVisualStyle
  2
Linepattern
 70
    14
177
     3
291
     1
 70
    58
 90
        2
176
     1
 90
        2
176
     1
 90
        0
176
     1
 90
        0
176
     1
 40
0.6
176
     1
 40
30.0
176
     1
 62
     7
420
 16777215
176
     1
 90
        1
176
     1
 90
        4
176
     1
 62
     7
176
     1
 62
   257
176
     1
 90
        7
176
     1
 90
        7
176
     1
 40
1.0
176
     1
 90
        8
176
     1
 62
     7
176
     1
 40
1.0
176
     1
 90
        1
176
     1
 90
        6
176
     1
 90
        2
176
     1
 62
     7
176
     1
 90
        5
176
     1
 90
        0
176
     1
 90
        0
176
     1
290
     0
176
     1
 90
        1
176
     1
 40
0.0
176
     1
 90
        0
176
     1
290
     0
176
     1
290
     1
176
     1
290
     1
176
     1
290
     0
176
     1
290
     0
176
     1
290
     0
176
     1
290
     0
176
     1
290
     0
176
     1
290
     0
176
     1
 90
       50
176
     1
 40
0.0
176
     1
 40
1.0
176
     1
 90
        0
176
     1
 62
    18
420
        0
176
     1
 90
       50
176
     1
 90
        3
176
     1
 62
     5
420
      255
176
     1
290
     0
176
     1
 90
       50
176
     1
 90
       50
176
     1
 90
       50
176
     1
290
     0
176
     1
 90
       50
176
     1
 62
   256
176
     0
 40
1.0
176
     0
 90
        2
176
     1
  1
strokes_ogs.tif
176
     1
290
     0
176
     1
 40
1.0
176
     1
 40
1.0
176
     1
  0
VISUALSTYLE
  5
3C
102
{ACAD_REACTORS
330
2A
102
}
330
2A
100
AcDbVisualStyle
  2
OverhangOff
 70
    21
177
     3
291
     1
 70
    58
 90
        2
176
     0
 90
        2
176
     0
 90
        0
176
     0
 90
        0
176
     0
 40
0.6
176
     0
 40
30.0
176
     0
 62
     7
420
 16777215
176
     0
 90
        1
176
     0
 90
        4
176
     0
 62
     7
176
     0
 62
   257
176
     0
 90
        1
176
     0
 90
        1
176
     0
 40
1.0
176
     0
 90
        9
176
     2
 62
     7
176
     0
 40
1.0
176
     0
 90
        1
176
     0
 90
        6
176
     0
 90
        2
176
     0
 62
     7
176
     0
 90
        5
176
     0
 90
        0
176
     0
 90
        0
176
     0
290
     0
176
     0
 90
        1
176
     0
 40
0.0
176
     0
 90
        0
176
     0
290
     0
176
     0
290
     1
176
     0
290
     1
176
     0
290
     0
176
     0
290
     0
176
     0
290
     0
176
     0
290
     0
176
     0
290
     0
176
     0
290
     0
176
     0
 90
       50
176
     0
 40
0.0
176
     0
 40
1.0
176
     0
 90
        0
176
     0
 62
    18
420
        0
176
     0
 90
       50
176
     0
 90
        3
176
     0
 62
     5
420
      255
176
     0
290
     0
176
     0
 90
       50
176
     0
 90
       50
176
     0
 90
       50
176
     0
290
     0
176
     0
 90
       50
176
     0
 62
   256
176
     0
 40
1.0
176
     0
 90
        2
176
     0
  1
strokes_ogs.tif
176
     0
290
     0
176
     0
 40
1.0
176
     0
 40
1.0
176
     0
  0
VISUALSTYLE
  5
33
102
{ACAD_REACTORS
330
2A
102
}
330
2A
100
AcDbVisualStyle
  2
Realistic
 70
     8
177
     3
291
     0
 70
    58
 90
        2
176
     1
 90
        3
176
     1
 90
        0
176
     1
 90
        2
176
     1
 40
0.6
176
     1
 40
30.0
176
     1
 62
     7
420
 16777215
176
     1
 90
        0
176
     1
 90
        0
176
     1
 62
     7
176
     1
 62
   257
176
     1
 90
        1
176
     1
 90
        1
176
     1
 40
1.0
176
     1
 90
        8
176
     1
 62
   257
176
     1
 40
1.0
176
     1
 90
        1
176
     1
 90
        6
176
     1
 90
        2
176
     1
 62
     7
176
     1
 90
        3
176
     1
 90
        0
176
     1
 90
        0
176
     1
290
     0
176
     1
 90
       13
176
     1
 40
0.0
176
     1
 90
        0
176
     1
290
     0
176
     1
290
     1
176
     1
290
     1
176
     1
290
     0
176
     1
290
     0
176
     1
290
     0
176
     1
290
     0
176
     1
290
     0
176
     1
290
     0
176
     1
 90
       50
176
     1
 40
0.0
176
     1
 40
1.0
176
     1
 90
        0
176
     1
 62
    18
420
        0
176
     1
 90
       50
176
     1
 90
        3
176
     1
 62
     5
420
      255
176
     1
290
     0
176
     1
 90
       50
176
     1
 90
       50
176
     1
 90
       50
176
     1
290
     0
176
     1
 90
       50
176
     1
 62
   256
176
     0
 40
1.0
176
     0
 90
        2
176
     1
  1
strokes_ogs.tif
176
     1
290
     0
176
     1
 40
1.0
176
     1
 40
1.0
176
     1
  0
VISUALSTYLE
  5
42
102
{ACAD_REACTORS
330
2A
102
}
330
2A
100
AcDbVisualStyle
  2
Shaded
 70
    27
177
     3
291
     0
 70
    58
 90
        2
176
     1
 90
        2
176
     1
 90
        1
176
     1
 90
        2
176
     1
 40
0.6
176
     1
 40
30.0
176
     1
 62
     7
420
 16777215
176
     1
 90
        0
176
     1
 90
        4
176
     1
 62
     7
176
     1
 62
   257
176
     1
 90
        1
176
     1
 90
        1
176
     1
 40
1.0
176
     1
 90
        8
176
     1
 62
   257
176
     1
 40
1.0
176
     1
 90
        1
176
     1
 90
        6
176
     1
 90
        2
176
     1
 62
     8
420
  7895160
176
     1
 90
        3
176
     1
 90
        0
176
     1
 90
        0
176
     1
290
     0
176
     1
 90
        5
176
     1
 40
0.0
176
     1
 90
        0
176
     1
290
     0
176
     1
290
     1
176
     1
290
     1
176
     1
290
     0
176
     1
290
     0
176
     1
290
     0
176
     1
290
     0
176
     1
290
     0
176
     1
290
     0
176
     1
 90
       50
176
     1
 40
0.0
176
     1
 40
1.0
176
     1
 90
        0
176
     1
 62
    18
420
        0
176
     1
 90
       50
176
     1
 90
        3
176
     1
 62
     5
420
      255
176
     1
290
     0
176
     1
 90
       50
176
     1
 90
       50
176
     1
 90
       50
176
     1
290
     0
176
     1
 90
       50
176
     1
 62
   256
176
     0
 40
1.0
176
     0
 90
        2
176
     1
  1
strokes_ogs.tif
176
     1
290
     0
176
     1
 40
1.0
176
     1
 40
1.0
176
     1
  0
VISUALSTYLE
  5
41
102
{ACAD_REACTORS
330
2A
102
}
330
2A
100
AcDbVisualStyle
  2
Shaded with edges
 70
    26
177
     3
291
     0
 70
    58
 90
        2
176
     1
 90
        2
176
     1
 90
        1
176
     1
 90
        2
176
     1
 40
0.6
176
     1
 40
30.0
176
     1
 62
     7
420
 16777215
176
     1
 90
        1
176
     1
 90
       10
176
     1
 62
     7
176
     1
 62
   257
176
     1
 90
        2
176
     1
 90
        1
176
     1
 40
1.0
176
     1
 90
        8
176
     1
 62
   257
176
     1
 40
1.0
176
     1
 90
        1
176
     1
 90
        6
176
     1
 90
        2
176
     1
 62
     7
176
     1
 90
        3
176
     1
 90
        0
176
     1
 90
        0
176
     1
290
     0
176
     1
 90
        5
176
     1
 40
0.0
176
     1
 90
        0
176
     1
290
     0
176
     1
290
     1
176
     1
290
     1
176
     1
290
     0
176
     1
290
     0
176
     1
290
     0
176
     1
290
     0
176
     1
290
     0
176
     1
290
     0
176
     1
 90
       50
176
     1
 40
0.0
176
     1
 40
1.0
176
     1
 90
        0
176
     1
 62
    18
420
        0
176
     1
 90
       50
176
     1
 90
        3
176
     1
 62
     5
420
      255
176
     1
290
     0
176
     1
 90
       50
176
     1
 90
       50
176
     1
 90
       50
176
     1
290
     0
176
     1
 90
       50
176
     1
 62
   256
176
     0
 40
1.0
176
     0
 90
        2
176
     1
  1
strokes_ogs.tif
176
     1
290
     0
176
     1
 40
1.0
176
     1
 40
1.0
176
     1
  0
VISUALSTYLE
  5
3E
102
{ACAD_REACTORS
330
2A
102
}
330
2A
100
AcDbVisualStyle
  2
Shades of Gray
 70
    23
177
     3
291
     0
 70
    58
 90
        2
176
     1
 90
        2
176
     1
 90
        3
176
     1
 90
        0
176
     1
 40
0.6
176
     1
 40
30.0
176
     1
 62
     7
420
 16777215
176
     1
 90
        2
176
     1
 90
        2
176
     1
 62
     7
176
     1
 62
     7
176
     1
 90
        1
176
     1
 90
        1
176
     1
 40
40.0
176
     1
 90
        8
176
     1
 62
     7
176
     1
 40
1.0
176
     1
 90
        1
176
     1
 90
        6
176
     1
 90
        2
176
     1
 62
     7
176
     1
 90
        3
176
     1
 90
        0
176
     1
 90
        0
176
     1
290
     0
176
     1
 90
        1
176
     1
 40
0.0
176
     1
 90
        0
176
     1
290
     0
176
     1
290
     1
176
     1
290
     1
176
     1
290
     0
176
     1
290
     0
176
     1
290
     0
176
     1
290
     0
176
     1
290
     0
176
     1
290
     0
176
     1
 90
       50
176
     1
 40
0.0
176
     1
 40
1.0
176
     1
 90
        0
176
     1
 62
    18
420
        0
176
     1
 90
       50
176
     1
 90
        3
176
     1
 62
     5
420
      255
176
     1
290
     0
176
     1
 90
       50
176
     1
 90
       50
176
     1
 90
       50
176
     1
290
     0
176
     1
 90
       50
176
     1
 62
   256
176
     0
 40
1.0
176
     0
 90
        2
176
     1
  1
strokes_ogs.tif
176
     1
290
     0
176
     1
 40
1.0
176
     1
 40
1.0
176
     1
  0
VISUALSTYLE
  5
3F
102
{ACAD_REACTORS
330
2A
102
}
330
2A
100
AcDbVisualStyle
  2
Sketchy
 70
    24
177
     3
291
     0
 70
    58
 90
        1
176
     1
 90
        2
176
     1
 90
        2
176
     1
 90
        0
176
     1
 40
0.6
176
     1
 40
30.0
176
     1
 62
     7
420
 16777215
176
     1
 90
        2
176
     1
 90
        2
176
     1
 62
     7
176
     1
 62
     7
176
     1
 90
        1
176
     1
 90
        1
176
     1
 40
40.0
176
     1
 90
       11
176
     1
 62
     7
176
     1
 40
1.0
176
     1
 90
        1
176
     1
 90
        6
176
     1
 90
        2
176
     1
 62
     7
176
     1
 90
        6
176
     1
 90
        0
176
     1
 90
        0
176
     1
290
     0
176
     1
 90
        1
176
     1
 40
0.0
176
     1
 90
        0
176
     1
290
     0
176
     1
290
     1
176
     1
290
     1
176
     1
290
     0
176
     1
290
     0
176
     1
290
     0
176
     1
290
     0
176
     1
290
     0
176
     1
290
     0
176
     1
 90
       50
176
     1
 40
0.0
176
     1
 40
1.0
176
     1
 90
        0
176
     1
 62
    18
420
        0
176
     1
 90
       50
176
     1
 90
        3
176
     1
 62
     5
420
      255
176
     1
290
     0
176
     1
 90
       50
176
     1
 90
       50
176
     1
 90
       50
176
     1
290
     0
176
     1
 90
       50
176
     1
 62
   256
176
     0
 40
1.0
176
     0
 90
        2
176
     1
  1
strokes_ogs.tif
176
     1
290
     0
176
     1
 40
1.0
176
     1
 40
1.0
176
     1
  0
VISUALSTYLE
  5
37
102
{ACAD_REACTORS
330
2A
102
}
330
2A
100
AcDbVisualStyle
  2
Thicken
 70
    13
177
     3
291
     1
 70
    58
 90
        2
176
     1
 90
        2
176
     1
 90
        0
176
     1
 90
        0
176
     1
 40
0.6
176
     1
 40
30.0
176
     1
 62
     7
420
 16777215
176
     1
 90
        1
176
     1
 90
        4
176
     1
 62
     7
176
     1
 62
   257
176
     1
 90
        1
176
     1
 90
        1
176
     1
 40
1.0
176
     1
 90
       12
176
     1
 62
     7
176
     1
 40
1.0
176
     1
 90
        1
176
     1
 90
        6
176
     1
 90
        2
176
     1
 62
     7
176
     1
 90
        5
176
     1
 90
        0
176
     1
 90
        0
176
     1
290
     0
176
     1
 90
        1
176
     1
 40
0.0
176
     1
 90
        0
176
     1
290
     0
176
     1
290
     1
176
     1
290
     1
176
     1
290
     0
176
     1
290
     0
176
     1
290
     0
176
     1
290
     0
176
     1
290
     0
176
     1
290
     0
176
     1
 90
       50
176
     1
 40
0.0
176
     1
 40
1.0
176
     1
 90
        0
176
     1
 62
    18
420
        0
176
     1
 90
       50
176
     1
 90
        3
176
     1
 62
     5
420
      255
176
     1
290
     0
176
     1
 90
       50
176
     1
 90
       50
176
     1
 90
       50
176
     1
290
     0
176
     1
 90
       50
176
     1
 62
   256
176
     0
 40
1.0
176
     0
 90
        2
176
     1
  1
strokes_ogs.tif
176
     1
290
     0
176
     1
 40
1.0
176
     1
 40
1.0
176
     1
  0
VISUALSTYLE
  5
30
102
{ACAD_REACTORS
330
2A
102
}
330
2A
100
AcDbVisualStyle
  2
Wireframe
 70
     5
177
     3
291
     0
 70
    58
 90
        0
176
     1
 90
        2
176
     1
 90
        0
176
     1
 90
        0
176
     1
 40
0.6
176
     1
 40
30.0
176
     1
 62
     7
420
 16777215
176
     1
 90
        1
176
     1
 90
        4
176
     1
 62
     7
176
     1
 62
   257
176
     1
 90
        1
176
     1
 90
        1
176
     1
 40
1.0
176
     1
 90
        0
176
     1
 62
   257
176
     1
 40
1.0
176
     1
 90
        1
176
     1
 90
        6
176
     1
 90
        2
176
     1
 62
     7
176
     1
 90
        3
176
     1
 90
        0
176
     1
 90
        0
176
     1
290
     0
176
     1
 90
        1
176
     1
 40
0.0
176
     1
 90
        0
176
     1
290
     0
176
     1
290
     1
176
     1
290
     1
176
     1
290
     0
176
     1
290
     0
176
     1
290
     0
176
     1
290
     0
176
     1
290
     0
176
     1
290
     0
176
     1
 90
       50
176
     1
 40
0.0
176
     1
 40
1.0
176
     1
 90
        0
176
     1
 62
    18
420
        0
176
     1
 90
       50
176
     1
 90
        3
176
     1
 62
     5
420
      255
176
     1
290
     0
176
     1
 90
       50
176
     1
 90
       50
176
     1
 90
       50
176
     1
290
     0
176
     1
 90
       50
176
     1
 62
   256
176
     0
 40
1.0
176
     0
 90
        2
176
     1
  1
strokes_ogs.tif
176
     1
290
     0
176
     1
 40
1.0
176
     1
 40
1.0
176
     1
  0
VISUALSTYLE
  5
40
102
{ACAD_REACTORS
330
2A
102
}
330
2A
100
AcDbVisualStyle
  2
X-Ray
 70
    25
177
     3
291
     0
 70
    58
 90
        2
176
     1
 90
        2
176
     1
 90
        1
176
     1
 90
        1
176
     1
 40
0.5
176
     1
 40
30.0
176
     1
 62
     7
420
 16777215
176
     1
 90
        1
176
     1
 90
        0
176
     1
 62
     7
176
     1
 62
   257
176
     1
 90
        1
176
     1
 90
        1
176
     1
 40
1.0
176
     1
 90
        8
176
     1
 62
     7
176
     1
 40
1.0
176
     1
 90
        1
176
     1
 90
        6
176
     1
 90
        2
176
     1
 62
     7
176
     1
 90
        3
176
     1
 90
        0
176
     1
 90
        0
176
     1
290
     0
176
     1
 90
       13
176
     1
 40
0.0
176
     1
 90
        0
176
     1
290
     0
176
     1
290
     1
176
     1
290
     1
176
     1
290
     0
176
     1
290
     0
176
     1
290
     0
176
     1
290
     0
176
     1
290
     0
176
     1
290
     0
176
     1
 90
       50
176
     1
 40
0.0
176
     1
 40
1.0
176
     1
 90
        0
176
     1
 62
    18
420
        0
176
     1
 90
       50
176
     1
 90
        3
176
     1
 62
     5
420
      255
176
     1
290
     0
176
     1
 90
       50
176
     1
 90
       50
176
     1
 90
       50
176
     1
290
     0
176
     1
 90
       50
176
     1
 62
   256
176
     0
 40
1.0
176
     0
 90
        2
176
     1
  1
strokes_ogs.tif
176
     1
290
     0
176
     1
 40
1.0
176
     1
 40
1.0
176
     1
  0
DICTIONARYVAR
  5
333
102
{ACAD_REACTORS
330
332
102
}
330
332
100
DictionaryVariables
280
     0
  1
1:1
  0
DICTIONARYVAR
  5
33B
102
{ACAD_REACTORS
330
332
102
}
330
332
100
DictionaryVariables
280
     0
  1
3.500000
  0
DICTIONARYVAR
  5
33C
102
{ACAD_REACTORS
330
332
102
}
330
332
100
DictionaryVariables
280
     0
  1
acadiso.lin
  0
DICTIONARYVAR
  5
338
102
{ACAD_REACTORS
330
332
102
}
330
332
100
DictionaryVariables
280
     0
  1
Standard
  0
DICTIONARYVAR
  5
337
102
{ACAD_REACTORS
330
332
102
}
330
332
100
DictionaryVariables
280
     0
  1
Standard
  0
DICTIONARY
  5
334
330
6A
100
AcDbDictionary
280
     1
281
     1
  3
ACAD_ROUNDTRIP_2008_TABLESTYLE_CELLSTYLEMAP
360
335
  0
CELLSTYLEMAP
  5
335
102
{ACAD_REACTORS
330
334
102
}
330
334
100
AcDbCellStyleMap
 90
        3
300
CELLSTYLE
  1
TABLEFORMAT_BEGIN
 90
        5
170
     1
 91
        0
 92
    32768
 62
   257
 93
        1
300
CONTENTFORMAT
  1
CONTENTFORMAT_BEGIN
 90
        0
 91
        0
 92
        4
 93
        0
300

 40
0.0
140
1.0
 94
        5
 62
     0
340
11
144
6.0
309
CONTENTFORMAT_END
171
     1
301
MARGIN
  1
CELLMARGIN_BEGIN
 40
1.5
 40
1.5
 40
1.5
 40
1.5
 40
1.5
 40
1.5
309
CELLMARGIN_END
 94
        6
 95
        1
302
GRIDFORMAT
  1
GRIDFORMAT_BEGIN
 90
        0
 91
        1
 62
     0
 92
       -2
340
14
 93
        0
 40
0.045
309
GRIDFORMAT_END
 95
        2
302
GRIDFORMAT
  1
GRIDFORMAT_BEGIN
 90
        0
 91
        1
 62
     0
 92
       -2
340
14
 93
        0
 40
0.045
309
GRIDFORMAT_END
 95
        4
302
GRIDFORMAT
  1
GRIDFORMAT_BEGIN
 90
        0
 91
        1
 62
     0
 92
       -2
340
14
 93
        0
 40
0.045
309
GRIDFORMAT_END
 95
        8
302
GRIDFORMAT
  1
GRIDFORMAT_BEGIN
 90
        0
 91
        1
 62
     0
 92
       -2
340
14
 93
        0
 40
0.045
309
GRIDFORMAT_END
 95
       16
302
GRIDFORMAT
  1
GRIDFORMAT_BEGIN
 90
        0
 91
        1
 62
     0
 92
       -2
340
14
 93
        0
 40
0.045
309
GRIDFORMAT_END
 95
       32
302
GRIDFORMAT
  1
GRIDFORMAT_BEGIN
 90
        0
 91
        1
 62
     0
 92
       -2
340
14
 93
        0
 40
0.045
309
GRIDFORMAT_END
309
TABLEFORMAT_END
  1
CELLSTYLE_BEGIN
 90
        1
 91
        1
300
_TITLE
309
CELLSTYLE_END
300
CELLSTYLE
  1
TABLEFORMAT_BEGIN
 90
        5
170
     1
 91
        0
 92
        0
 62
   257
 93
        1
300
CONTENTFORMAT
  1
CONTENTFORMAT_BEGIN
 90
        0
 91
        0
 92
        4
 93
        0
300

 40
0.0
140
1.0
 94
        5
 62
     0
340
11
144
4.5
309
CONTENTFORMAT_END
171
     1
301
MARGIN
  1
CELLMARGIN_BEGIN
 40
1.5
 40
1.5
 40
1.5
 40
1.5
 40
1.5
 40
1.5
309
CELLMARGIN_END
 94
        6
 95
        1
302
GRIDFORMAT
  1
GRIDFORMAT_BEGIN
 90
        0
 91
        1
 62
     0
 92
       -2
340
14
 93
        0
 40
0.045
309
GRIDFORMAT_END
 95
        2
302
GRIDFORMAT
  1
GRIDFORMAT_BEGIN
 90
        0
 91
        1
 62
     0
 92
       -2
340
14
 93
        0
 40
0.045
309
GRIDFORMAT_END
 95
        4
302
GRIDFORMAT
  1
GRIDFORMAT_BEGIN
 90
        0
 91
        1
 62
     0
 92
       -2
340
14
 93
        0
 40
0.045
309
GRIDFORMAT_END
 95
        8
302
GRIDFORMAT
  1
GRIDFORMAT_BEGIN
 90
        0
 91
        1
 62
     0
 92
       -2
340
14
 93
        0
 40
0.045
309
GRIDFORMAT_END
 95
       16
302
GRIDFORMAT
  1
GRIDFORMAT_BEGIN
 90
        0
 91
        1
 62
     0
 92
       -2
340
14
 93
        0
 40
0.045
309
GRIDFORMAT_END
 95
       32
302
GRIDFORMAT
  1
GRIDFORMAT_BEGIN
 90
        0
 91
        1
 62
     0
 92
       -2
340
14
 93
        0
 40
0.045
309
GRIDFORMAT_END
309
TABLEFORMAT_END
  1
CELLSTYLE_BEGIN
 90
        2
 91
        1
300
_HEADER
309
CELLSTYLE_END
300
CELLSTYLE
  1
TABLEFORMAT_BEGIN
 90
        5
170
     1
 91
        0
 92
        0
 62
   257
 93
        1
300
CONTENTFORMAT
  1
CONTENTFORMAT_BEGIN
 90
        0
 91
        0
 92
        4
 93
        0
300

 40
0.0
140
1.0
 94
        2
 62
     0
340
11
144
4.5
309
CONTENTFORMAT_END
171
     1
301
MARGIN
  1
CELLMARGIN_BEGIN
 40
1.5
 40
1.5
 40
1.5
 40
1.5
 40
1.5
 40
1.5
309
CELLMARGIN_END
 94
        6
 95
        1
302
GRIDFORMAT
  1
GRIDFORMAT_BEGIN
 90
        0
 91
        1
 62
     0
 92
       -2
340
14
 93
        0
 40
0.045
309
GRIDFORMAT_END
 95
        2
302
GRIDFORMAT
  1
GRIDFORMAT_BEGIN
 90
        0
 91
        1
 62
     0
 92
       -2
340
14
 93
        0
 40
0.045
309
GRIDFORMAT_END
 95
        4
302
GRIDFORMAT
  1
GRIDFORMAT_BEGIN
 90
        0
 91
        1
 62
     0
 92
       -2
340
14
 93
        0
 40
0.045
309
GRIDFORMAT_END
 95
        8
302
GRIDFORMAT
  1
GRIDFORMAT_BEGIN
 90
        0
 91
        1
 62
     0
 92
       -2
340
14
 93
        0
 40
0.045
309
GRIDFORMAT_END
 95
       16
302
GRIDFORMAT
  1
GRIDFORMAT_BEGIN
 90
        0
 91
        1
 62
     0
 92
       -2
340
14
 93
        0
 40
0.045
309
GRIDFORMAT_END
 95
       32
302
GRIDFORMAT
  1
GRIDFORMAT_BEGIN
 90
        0
 91
        1
 62
     0
 92
       -2
340
14
 93
        0
 40
0.045
309
GRIDFORMAT_END
309
TABLEFORMAT_END
  1
CELLSTYLE_BEGIN
 90
        3
 91
        2
300
_DATA
309
CELLSTYLE_END
  0
ENDSEC
  0
EOF
